Oops, an error
Loading. Please wait.

Vampire Money Tab

ver4
ver4

Whole song

Interactive

More versions @911Tabs.com
13,129 views 42 this week
5 commentsread comments
1 2 3 4 5
excellent!
x 7
Autoscroll
+/-
esc
set tempo
stop
Contributor
Difficulty
intermediate
WARNING: You are trying to view
                                    content from Ultimate-Guitar.com
                                    in an unauthorized application,
                                    which is prohibited.

                                    Please use an official Ultimate
                                    Guitar Tabs application for iPhone,
                                    iPad or Android to access legitimate
                                    chords, guitar, bass, and drum tabs
                                    from Ultimate-Guitar.com database.

                                    Type "ultimate guitar tabs" in Apple
                                    App Store's or Android Market's
                                    search to find the application.
-------------------------------------------------------------------------------
                             VAMPIRE MONEY - My Chemical Romance
-------------------------------------------------------------------------------
Tabbed by: ironmanben
Email: bentrooper@gmail.com

Tuning: e B G D A E


guitar 1 - Ray Toro - lead (Audible through left speaker)
guitar 2 - Frank Iero - lead (Audible through left speaker)
guitar 3 - Frank Iero - rhythm (Audible through right speaker)


Where there are only 2 different bars attached together, only guitars 1 and 3 are 
playing, like in the main riff.
The top is guitar 1, the bottom is guitar 3. 
Where there are 3 bars attached, all 3 guitars are playing.  For example, the chorus. 
Guitar 1 is on top, Guitar 2 is in the middle, and Guitar 3 is on the bottom.


main riff:
e|-------------------------------|----------------------------------|
B|-------------------------------|----------------------------------|
G|-8-8-8-8-8-8-8-8-8-8-8-8-8-7-6-|-8-8-8-8-8-8-8-8-8-8-8-8-8-8-1111^|
D|-9-9-9-9-9-9-9-9-9-9-9-9-9-8-7-|-9-9-9-9-9-9-9-9-9-9-9-9-9-9-1212^|
A|-9-9-9-9-9-9-9-9-9-9-9-9-9-8-7-|-9-9-9-9-9-9-9-9-9-9-9-9-9-9-1212^|
E|-7-7-7-7-7-7-7-7-7-7-7-7-7-6-5-|-7-7-7-7-7-7-7-7-7-7-7-7-7-7-1010^|
-|                               |                                  |
e|-------------------------------|----------------------------------|
B|-------------------------------|----------------------------------|
G|-------------------------------|----------------------------------|
D|-9-9-9-9-9-9-9-9-9-9-9-9-9-8-7-|-9---9-9-9-9-9-9-9-9-9-9-9--------|
A|-9-9-9-9-9-9-9-9-9-9-9-9-9-8-7-|-9---9-9-9-9-9-9-9-9-9-9-9-111213-|
E|-7-7-7-7-7-7-7-7-7-7-7-7-7-6-5-|-7---7-7-7-7-7-7-7-7-7-7-7-9-1011-|


e|-------------------------------|----------------------------------|
B|-------------------------------|----------------------------------|
G|-8-8-8-8-8-8-8-8-8-8-8-8-8-7-6-|-8-8-8-8-8-8-8-8-8-8-8-8-8-8-1111^|
D|-9-9-9-9-9-9-9-9-9-9-9-9-9-8-7-|-9-9-9-9-9-9-9-9-9-9-9-9-9-9-1212^|
A|-9-9-9-9-9-9-9-9-9-9-9-9-9-8-7-|-9-9-9-9-9-9-9-9-9-9-9-9-9-9-1212^|
E|-7-7-7-7-7-7-7-7-7-7-7-7-7-6-5-|-7-7-7-7-7-7-7-7-7-7-7-7-7-7-1010^|
-|                               |                                  |
e|-------------------------------|----------------------------------|
B|-------------------------------|----------------------------------|
G|-------------------------------|----------------------------------|
D|-9---9-9-9-9-9-9-9-9-9-9-9-8-7-|-9---9-9-9-9-9-9-9-9-9-9-9--------|
A|-9---9-9-9-9-9-9-9-9-9-9-9-8-7-|-9---9-9-9-9-9-9-9-9-9-9-9-111213-|
E|-7---7-7-7-7-7-7-7-7-7-7-7-6-5-|-7---7-7-7-7-7-7-7-7-7-7-7-9-1011-|


verse 1:
e|-------------------------------------------------------------------|
B|-------------------------------------------------------------------|
G|---8---------------------------------------------------------------|
D|---9-----------------------------------------------------------x---|
A|---9-----------------------------------------------------------x---|
E|---7---------------------------------------------------------------|
-|                                                                   |
e|-------------------------------------------------------------------|
B|-------------------------------------------------------------------|
G|-------------------------------------------------------------------|
D|---------------------------------------------------------------x-x-|
A|---9-----------------------------9-9\--------------------------x-x-|
E|---7-----------------------------7-7\------------------------------|


e|-----------------------------------------------------------------|
B|-9-----------9---9-----9-----------------------------------------|
G|-9-----------9-9-9-9---9---x-x-x-8-------------8-8---------------|
D|-9-----------9-9-9-9-------x-x-x-x-------------9-9---------x-x-x-|
A|-7---------------------------x-x-9--------(9)----9---------x-x-x-|
E|---------------------------------7---------------7-------------x-|
-|                                                                 |
e|-----------------------------------------------------------------|
B|-9\--------------------------------------------------------------|
G|-9\------------------------x-x---4+4+4+4+4+4+4+4+4+4+4+4+4+4+4+4+|
D|-9\------------------------x-x-----------------------------------|
A|-7\--------------------------------------------------------------|
E|-----------------------------------------------------------------|
   

e|-----------------------------------------------------------------|
B|-11111111111111119-9-9-9-9-9-9-9---------------------------------|
G|-11111111111111119-9-9-9-9-9-9-9-8-8-8-8-8-8-8-8-8-11111111111111|
D|-11111111111111119-9-9-9-9-9-9-9-9-9-9-9-9-9-9-9-9-11111111111111|
A|-----------------7-7-7-7-7-7-7-7-9-9-9-9-9-9-9-9-9-9-9-9-9-9-9-9-|
E|---------------------------------7-7-7-7-7-7-7-7-7---------------|
-| ^11's, not 1's.                                                 |
e|-----------------------------------------------------------------|
B|---------------------------------------------------9-9-----------|
G|-4+4+4+4+4+4+4+4+4+4+4+4+4+4+4+4+4+4+4+4+4+4+4+4+x-9-9-9-x-111111|
D|-------------------------------------------------x-9-9-9-x-111111|
A|-------------------------------------------------x-7-7-7-x-9-9-9-|
E|-----------------------------------------------------------------|



chorus 1:
e|------------------------------------------------------------------|
B|------------------------------------------------------------------|
G|-8-8-8-8-8-8-8-8-8-8-8-8-8-8-8-8-8-8-8-8-8-8-8-8-8-8-8-8----------|
D|-9-9-9-9-9-9-9-9-9-9-9-9-9-9-9-9-9-9-9-9-9-9-9-9-9-9-9-9----------|
A|-9-9-9-9-9-9-9-9-9-9-9-9-9-9-9-9-9-9-9-9-9-9-9-9-9-9-9-9-9-111213-|
E|-7-7-7-7-7-7-7-7-7-7-7-7-7-7-7-7-7-7-7-7-7-7-7-7-7-7-7-7-7-9-1011-|
-|                                                                  |
e|------------------------------------------------------------------|
B|-12121212121212121212121212121212121212121212121212121212121415---|
G|-x-x-x-x-x-x-x-x-x-x-x-x-x-x-x-x-x-x-x-x-x-x-x-x-x-x-x-x-x-x-x-9--|
D|-9-9-9-9-9-9-9-9-9-9-9-9-9-9-9-9-9-9-9-9-9-9-9-9-9-9-9-9-9-1011X--|
A|---------------------------------------------------------------7--|
E|------------------------------------------------------------------|
-|                                                                  |
e|------------------------------------------------------------------|
B|------------------------------------------------------------------|
G|------------------------------------------------------------------|
D|-9-9-9-9-9-9-9-9-9-9-9-9-9-8-7-9-9-9-9-9-9-9-9-9-9-9-9-9-9--------|
A|-9-9-9-9-9-9-9-9-9-9-9-9-9-8-7-9-9-9-9-9-9-9-9-9-9-9-9-9-9-111213-|
A|-7-7-7-7-7-7-7-7-7-7-7-7-7-6-5-7-7-7-7-7-7-7-7-7-7-7-7-7-7-9-1011-|


e|------------------------------------------------------------------|
B|------------------------------------------------------------------|
G|-131313131313131313131313131313-8-8-8-8-8-8-8-8-8-8-8-8-8-8-8-8-8-|
D|-141414141414141414141414141414-9-9-9-9-9-9-9-9-9-9-9-9-9-9-9-9-9-|
A|-141414141414141414141414141414-9-9-9-9-9-9-9-9-9-9-9-9-9-9-9-9-9-|
E|-121212121212121212121212121212-7-7-7-7-7-7-7-7-7-7-7-7-7-7-7-7-7-|
-|                                                                  |
e|------------------------------------------------------------------|
B|------------------------------------------------------------------|
G|-9-9-9-9-9-9-9-9-9-9-9-9-9-9-9------------------------------------|
D|-x-x-x-x-x-x-x-x-x-x-x-x-x-x-x----9-9-9-9-9-9-7-9-9-9-9-9-9-9-9-7-|
A|-7-7-7-7-7-7-7-7-7-7-7-7-7-7-7----x---x-x-x---------x-x-x---------|
E|----------------------------------7---7-7-7---------7-7-7---------|
-|                                                                  |
e|------------------------------------------------------------------|
B|------------------------------------------------------------------|
G|------------------------------------------------------------------|
D|-14--14141414141414141414141414---9---9-9-9-9-9-9-9-9-9-9-9-------|
A|-14--14141414141414141414141414---9---9-9-9-9-9-9-9-9-9-9-9-8-7---|
E|-12--12121212121212121212121212-7-7---7-7-7-7-7-7-7-7-7-7-7-6-5-0-|
  

e|------------------------------------------------------------------|
B|-11--11--11--11109---9---9-9-9-9-8-8-8-8-8-8-8-8------------------|
G|-11111111111111109-9-9-9-9-9-9-9-8-8-8-8-8-8-8-8------------------|
D|-11111111111111109-9-9-9-9-9-9-9-8-8-8-8-8-8-8-8-6-6-6-6-6-4-4-4--|
A|-9-9-9-9-9-9-9-8-7-7-7-7-7-7-7-7-6-6-6-6-6-6-6-6-6-6-6-6-6-4-4-4--|
E|-------------------------------------------------4-4-4-4-4-2-2-2--|
-|                                                                  |
e|------------------------------------------------------------------|
B|------------------------------------------------------------------|
G|-11111111111111109-9-9-9-9-9-9-9-8-8-8-8-8-8-8-8-111111119-9-9-9--|
D|-x-x-x-x-x-x-x-x-x-x-x-x-x-x-x-x-x-x-x-x-x-x-x-x-x-x-x-x-x-x-x-x--|
A|-9-9-9-9-9-9-9-8-7-7-7-7-7-7-7-7-6-6-6-6-6-6-6-6-9-9-9-9-7-7-7-7--|
E|------------------------------------------------------------------|
-|                                                                  |
e|------------------------------------------------------------------|
B|------------------------------------------------------------------|
G|-11111111111111109-9-9-9-9-9-9-9-8-8-8-8-8-8-8--------------------|
D|-11111111111111109-9-9-9-9-9-9-9-8-8-8-8-8-8-8---6-6-6-6-4-4-4-4--|
A|-9-9-9-9-9-9-9-8-7-7-7-7-7-7-7-7-6-6-6-6-6-6-6---6-6-6-6-4-4-4-4--|
E|-----------------------------------------------4-4-4-4-4-2-2-2-2--|


e|---------------------------------|
B|---------------------------------|
G|-9-9-9-9-9-9-9-9-----------------|
D|-9-9-9-9-9-9-9-9-4-4-4-4-4-4-4-4-|
A|-7-7-7-7-7-7-7-7-4-4-4-4-4-4-4-4-|
E|-0-0-0-0-0-0-0-0-2-2-2-2-2-2-2-2-|
-|                                 |
e|---------------------------------|
B|---------------------------------|
G|-9-9-9-9-9-9-9-9-1111111111111111|
D|-x-x-x-x-x-x-x-x-x-x-x-x-x-x-x-x-|
A|-7-7-7-7-7-7-7-7-9-9-9-9-9-9-9-9-|
E|---------------------------------|
-|                                 |
e|---------------------------------|
B|---------------------------------|
G|-9-9-9-9-9-9-9-9-1111111111111111|
D|-9-9-9-9-9-9-9-9-1111111111111111|
A|-7-7-7-7-7-7-7-7-9-9-9-9-9-9-9-9-|
E|---------------------------------|


bridge:
e|---------------------------------|---------------------------------|
B|---------------------------------|---------------------------------|
G|---------------------------------|---------------------------------|
D|-9-9-9-9-9-9-9-9-9-9-9-9-9-9-9-9-|-9-9-9-9-9-9-9-9-9-9-9-9-9-9-9-9-|
A|-9-9-9-9-9-9-9-9-9-9-9-9-9-9-9-9-|-9-9-9-9-9-9-9-9-9-9-9-9-9-9-9-9-|
E|-7-7-7-7-7-7-7-7-7-7-7-7-7-7-7-7-|-7-7-7-7-7-7-7-7-7-7-7-7-7-7-7-7-|
-|                                 |                                 |
e|---------------------------------|---------------------------------|
B|---------------121212121212111011|-121212121212129-121212121212129-|
G|---------------x-9-9-9-x-x-x-x-x-|-x-x-x-x-x-x-x-x-x-x-x-x-x-x-x-x-|
D|---------------9-9-9-9-9-9-8-7-8-|-9-9-9-9-9-9-9-7-9-9-9-9-9-9-9-7-|
A|---------------------------------|---------------------------------|
E|---------------------------------|---------------------------------|
-|                                 |                                 |
e|---------------------------------|---------------------------------|
B|---------------------------------|---------------------------------|
G|-4+4+4+4+4+4+4+4+4+4+4+4+4-3-2---|-4+4+4+4+4+4+4+4+4+4+4+4+4-2-2---|
D|---------------------------------|---------------------------------|
A|---------------------------------|---------------------------------|
E|---------------------------------|---------------------------------|



e|---------------------------------|---------------------------------|
B|---------------------------------|---------------------------------|
G|-8-8-8-8-8-8-8-8-8-8-8-8-8-8-8-8-|-8-8-8-8-8-8-8-8-8-8-8-8-8-8-8-8-|
D|-9-9-9-9-9-9-9-9-9-9-9-9-9-9-9-9-|-9-9-9-9-9-9-9-9-9-9-9-9-9-9-9-9-|
A|-9-9-9-9-9-9-9-9-9-9-9-9-9-9-9-9-|-9-9-9-9-9-9-9-9-9-9-9-9-9-9-9-9-|
E|-7-7-7-7-7-7-7-7-7-7-7-7-7-7-7-7-|-7-7-7-7-7-7-7-7-7-7-7-7-7-7-7-7-|
-|                                 |                                 |
e|---------------------------------|---------------------------------|
B|---------------------------------|---------------------------------|
G|---------------------------------|---------------------------------|
D|---------------------------------|---------------------------------|
A|---------------------------------|---------------------------------|
E|---------------------------------|---------------------------------|
-|                                 |                                 |
e|---------------------------------|---------------------------------|
B|---------------------------------|-------------------------4-------|
G|-4+4+4+4+4+4+4+4+4+4+4+4+4-3-2---|-4+4+4+4+4+4+4+4+4+4+4+4+--3-2---|
D|---------------------------------|---------------------------------|
A|---------------------------------|---------------------------------|
E|---------------------------------|---------------------------------|



verse 2:
e|------------------------------------------------------------------|
B|------------------------------------------------------------------|
G|-8-8-8-8-8-8-8-8-8-8-8-8-8-8-6-8-8-8-8-8-8-8-8-8-8-8-8-8-8--------|
D|-9-9-9-9-9-9-9-9-9-9-9-9-9-9-7-9-9-9-9-9-9-9-9-9-9-9-9-9-9--------|
A|-9-9-9-9-9-9-9-9-9-9-9-9-9-9-7-9-9-9-9-9-9-9-9-9-9-9-9-9-9-111213-|
E|-7-7-7-7-7-7-7-7-7-7-7-7-7-7-5-7-7-7-7-7-7-7-7-7-7-7-7-7-7-9-1011-|
-|                                                                  |
e|------------------------------------------------------------------|
B|------------------------------------------------------------------|
G|-4+4+4+4+4+4+4+4+4+4+4+4+4-3-2---4+4+4+4+4+4+4+4+4+4+4+4+2-3-4----|
D|------------------------------------------------------------------|
A|------------------------------------------------------------------|
E|------------------------------------------------------------------|


e|-----------------------------------------------------------|
B|-----------------------------------------------------------|
G|-13131313131313131313131313----8-8-8-8-8-8-9-9-9-8-8-8-----|
D|-14141414141414141414141414----9-9-9-9-9-9-9-9-9-9-9-9-----|
A|-14141414141414141414141414x-x-9-9-9-9-9-9-9-9-9-9-9-9-----|
E|-12121212121212121212121212x-x-7-7-7-7-7-7-7-7-7-7-7-7-0-0-|
-|                                                           |
e|-----------------------------------------------------------|
B|-------------------------------------------------7-7-7-7-4-|
G|-4+4+4+4+4+4+4+4+4+4+4+4+4-3-2---4+4+4+4+4+4+4+4+4+4+4+4+--|
D|-----------------------------------------------------------|
A|-----------------------------------------------------------|
E|-----------------------------------------------------------|


e|-------------------------------------------------------------------|
B|-1111111111111111109-9-9-9-9-9-9-9---------------------------------|
G|-1111111111111111109-9-9-9-9-9-9-9-8-8-8-8-8-8-8-8-8-11111111111111|
D|-1111111111111111109-9-9-9-9-9-9-9-9-9-9-9-9-9-9-9-9-11111111111111|
A|-9-9-9-9-9-9-9-9-8-7-7-7-7-7-7-7-7-9-9-9-9-9-9-9-9-9-9-9-9-9-9-9-9-|
E|-----------------------------------7-7-7-7-7-7-7-7-7---------------|
-|                                                                   |
e|-------------------------------------------------------------------|
B|---5-------------------------------------------------5-5-5-5-5-5-5-|
G|-------6-6+6+6+6+6+6+2-4-4+4+4+4+4+4+4+4+4+4+4+4+4+x-3-3-3-3-3-3-3-|
D|---------------------------------------------------x---------------|
A|---------------------------------------------------x---------------|
E|-------------------------------------------------------------------|



chorus 2:
e|------------------------------------------------------------------|
B|------------------------------------------------------------------|
G|-8---8-8-8-8-8-8-8-8-8-8-8-8-6-8-8-8-8-8-8-8-8-8-8-8-8-8-8--------|
D|-9---9-9-9-9-9-9-9-9-9-9-9-9-7-9-9-9-9-9-9-9-9-9-9-9-9-9-9--------|
A|-9---9-9-9-9-9-9-9-9-9-9-9-9-7-9-9-9-9-9-9-9-9-9-9-9-9-9-9-111213-|
E|-7---7-7-7-7-7-7-7-7-7-7-7-7-5-7-7-7-7-7-7-7-7-7-7-7-7-7-7-9-1011-|
-|                                                                  |
e|------------------------------------------------------------------|
B|-1212121212121212121212121212101212121212121212121212121212111012-|
G|-x-x-x-x-x-x-x-x-x-x-x-x-x-x-x-x-x-x-x-x-x-x-x-x-x-x-x-x-x-x-x-x--|
D|-9-9-9-9-9-9-9-9-9-9-9-9-9-9-7-9-9-9-9-9-9-9-9-9-9-9-9-9-9-8-7-9--|
A|------------------------------------------------------------------|
E|------------------------------------------------------------------|
-|                                                                  |
e|------------------------------------------------------------------|
B|------------------------------------------------------------------|
G|-------------------------------9----------------------------------|
D|-9-9-9-9-9-9-9-9-9-9-9-9-9-8-7-9-9-9-9-9-9-9-9-9-9-9-9-9---9-1112-|
A|-9-9-9-9-9-9-9-9-9-9-9-9-9-8-7-7-9-9-9-9-9-9-9-9-9-9-9-9---9-1112-|
E|-7-7-7-7-7-7-7-7-7-7-7-7-7-6-5---7-7-7-7-7-7-7-7-7-7-7-7-0-7-9-10-|


e|-------------------------------------------------------------------|
B|-9-9-9-9-9-9-9-9-8-9-9-9-9-9-9-9-----------------------------------|
G|-9-9-9-9-9-9-9-9-8-9-9-9-9-9-9-9-8-8-8-8-8-8-8-8-8-8-8-8-8-8-----11|
D|-9-9-9-9-9-9-9-9-8-9-9-9-9-9-9-9-9-9-9-9-9-9-9-9-9-9-9-9-9-9-----11|
A|-7-7-7-7-7-7-7-7-6-7-7-7-7-7-7-7-9-9-9-9-9-9-9-9-9-9-9-9-9-9-12139-|
E|---------------------------------7-7-7-7-7-7-7-7-7-7-7-7-7-7-1011--|
-|                                                                   |
e|-------------------------------------------------------------------|
B|-12121212121212121212121212121212121212121212121212121212121110----|
G|-x-x-x-x-x-x-x-x-x-x-x-x-x-x-x-x-x-x-x-x-x-x-x-x-x-x-x-x-x-x-x-11--|
D|-9-9-9-9-9-9-9-9-9-9-9-9-9-9-9-9-9-9-9-9-9-9-9-9-9-9-9-9-9-8-7-x---|
A|---------------------------------------------------------------9---|
E|-------------------------------------------------------------------|
-|                                                                   |
e|-------------------------------------------------------------------|
B|-------------------------------------------------------------------|
G|-9---9-9-9-9-9-9-9-9-9-9-9-9---------------------------------------|
D|-9---9-9-9-9-9-9-9-9-9-9-9-9-7-6-9---9-9-9-9-9-9-9-9-9-9-9-------9-|
A|-7---7-7-7-7-7-7-7-7-7-7-7-7-5-4-9---9-9-9-9-9-9-9-9-9-9-9-1011129-|
E|-7---7-7-7-7-7-7-7-7-7-7-7-------7---7-7-7-7-7-7-7-7-7-7-7-8-9-107-|


e|-----------------------------------------------------------------|
B|-11111111111111109-9-9-9-9-9-9-9-8-8-8-8-8-8-8-8-----------------|
G|-11111111111111109-9-9-9-9-9-9-9-8-8-8-8-8-8-8-8-----------------|
D|-11111111111111109-9-9-9-9-9-9-9-8-8-8-8-8-8-8-8-6---6---4---4---|
A|-9-9-9-9-9-9-9-8-7-7-7-7-7-7-7-7-6-6-6-6-6-6-6-6-6---6---4---4---|
E|-------------------------------------------------4---4---2---2---|
-|                                                                 |
e|-----------------------------------------------------------------|
B|-----------------------------------------------------------------|
G|111111111111111109-9-9-9-9-9-9-9-8-8-8-8-8-8-8-8-111111119-9-9-9-|
D|-x-x-x-x-x-x-x-x-x-x-x-x-x-x-x-x-x-x-x-x-x-x-x-x-x-x-x-x-x-x-x-x-|
A|-9-9-9-9-9-9-9-8-7-7-7-7-7-7-7-7-6-6-6-6-6-6-6-6-9-9-9-9-7-7-7-7-|
E|-----------------------------------------------------------------|
-|                                                                 |
e|-----------------------------------------------------------------|
B|-----------------------------------------------------------------|
G|-11111111111111109-9-9-9-9-9-9-9-8-8-8-8-8-8-8-8-----------------|
D|-11111111111111109-9-9-9-9-9-9-9-8-8-8-8-8-8-8-8-6---6---4---4---|
A|-9-9-9-9-9-9-9-8-7-7-7-7-7-7-7-7-6-6-6-6-6-6-6-6-6-6-6-6-4-4-4-4-|
E|-------------------------------------------------4-4-4-4-2-2-2-2-|


e|---------------------------------|
B|---------------------------------|
G|-9-9-9-9-9-9-9-9-----------------|
D|-9-9-9-9-9-9-9-9-4-4-4-4-4-4-4-4-|
A|-7-7-7-7-7-7-7-7-4-4-4-4-4-4-4-4-|
E|-0-0-0-0-0-0-0-0-2-2-2-2-2-2-2-2-|
-|                                 |
e|---------------------------------|
B|---------------------------------|
G|-9-9-9-9-9-9-9-9-1111111111111111|
D|-x-x-x-x-x-x-x-x-x-x-x-x-x-x-x-x-|
A|-7-7-7-7-7-7-7-7-9-9-9-9-9-9-9-9-|
E|---------------------------------|
-|                                 |
e|---------------------------------|
B|---------------------------------|
G|-9-9-9-9-9-9-9-9-1111111111111111|
D|-9-9-9-9-9-9-9-9-1111111111111111|
A|-7-7-7-7-7-7-7-7-9-9-9-9-9-9-9-9-|
E|---------------------------------|


bridge 2:
e|-----------------------------------------------------------------|
B|-----------------------------------------------------------------|
G|-----------------------------------------------------------------|
D|-9---------------10--------------11--------------12--------------|
A|-9---------------10--------------11--------------12--------------|
E|-7---------------8---------------9---------------10--------------|
-|                                                                 |
e|-----------------------------------------------------------------|
B|-----------------------------------------------------------------|
G|-----------------------------------------------------------------|
D|-9---------------10--------------11--------------12--------------|
A|-9---------------10--------------11--------------12--------------|
E|-7---------------8---------------9---------------10--------------|


e|-----------------------------------------------------------------|
B|-----------------------------------------------------------------|
G|-----------------------------------------------------------------|
D|-13--------------14----------------------------------------------|
A|-13--------------14--------------15------16------17--18--19--20--|
E|-11--------------12--------------13------14------15--16--17--18--|
-|                                                                 |
e|-----------------------------------------------------------------|
B|-----------------------------------------------------------------|
G|-----------------------------------------------------------------|
D|-13------14------15------16------16------18------19--------------|
A|-x-------14------15------16------x-------x-------x---18--19--20--|
E|-11------------------------------14------16------17--16--17--18--|



guitar solo:
(guitar 1:)
Ray Toro has a soloing style similar to Chuck Berry and Keith Richards.  It's simple once
you break it down, but the key is playing it fast and in time with the rest of the band.
e|-7-7---------7---------7-----------------------------------------|
B|-7-7-------7---------7---------7-------7-7p5---5-7-----7---9-7-9-|
G|-----9^(11)----9^(11)----9^(11)--9^(11)------7---7h8---7---9-7-9-|
D|-----------------------------------------------------9---9-------|
A|-----------------------------------------------------------------|
E|-----------------------------------------------------------------|

e|-------------------7---------7--------------------------------|
B|-7-----9---------7--------------------------------7-7-------7-|
G|-7h8---9-9-^(11)-----9^(11)----9^(11)-9p7---9^(11)----9^(11)--|
D|-----9-----------------------------------h9-------------------|
A|--------------------------------------------------------------|
E|--------------------------------------------------------------|

e|--------------------------------------------------------121212|
B|--------7-7p5---5-7---------7---7---5---9-------9-9~--9-121212|
G|-9^(11)-------7---7h8-------7---7---5---9-------9-9~--9-------|
D|----------------------9-9-9---9---9---9-----------------------|
A|------------------------9-9---9---9---------------------------|
E|------------------------------------------4-5-6---------------|

e|--------1212-------121212------------------------1212------------|
B|--------1212-------12121212---------------14^(15)----15p12-15p12-|
G|-14^(16)----14^(16)--------14p12-14--12--------------------------|
D|-----------------------------------------------------------------|
A|-----------------------------------------------------------------|
E|-----------------------------------------------------------------|

e|---------------------------------------7-------7-7--------7-7-|
B|---------------------------------------7-------7-7--------7-7-|
G|-15p12-14-15----------14-12----9^(11)----9^(11)----9^(11)-----|
D|--------------17p14-17----------------------------------------|
A|--------------------------------------------------------------|
E|--------------------------------------------------------------|

e|--------7-7---------------------------------------------------|
B|--------7-7-----------------7---------9---9-7^7-9-7^7^7^7^--7^|
G|-9^(11)-----9pb(11)r(9)-7-9-7--h8---7-9---9-7^----7^7^7^7^--7^|
D|----------------------------------9-----9---------------------|
A|--------------------------------------------------------------|
E|--------------------------------------------------------------|

e|-14-----------14-----------14-17p14--------------------------------|
B|-----------14-----------14---------17p1417p1414t1214-12p10-12-10---|
G|----16-16^-------16^(18)----------------------------------------12-|
D|-------------------------------------------------------------------|
A|-------------------------------------------------------------------|
E|-------------------------------------------------------------------|

e|-------------------------------------------------------------------|
B|-14-------12-12-12---------12-12-12-11-----11-----11-----x-x-x-x-x-|
G|---15^(17)---------15^(17)----------13^(15)13^(15)13^(15)x-x-x-x-x-|
D|---------------------------------------------------------x-x-x-x-x-|
A|-------------------------------------------------------------------|
E|-------------------------------------------------------------------|



guitar solo rhythm:
(guitar 3:)
e|-------------------------------|-----------------------------------|
B|-------------------------------|-----------------------------------|
G|-------------------------------|-----------------------------------|
D|-9-9-9-9-9-9-9-9-9-9-9-9-9-8-7-|-9---9-9-9-9-9-9-9-9-9-9-9---------|
A|-9-9-9-9-9-9-9-9-9-9-9-9-9-8-7-|-9---9-9-9-9-9-9-9-9-9-9-9-11121313|
E|-7-7-7-7-7-7-7-7-7-7-7-7-7-6-5-|-7---7-7-7-7-7-7-7-7-7-7-7-9-101111|

e|-------------------------------|----------------------------------|
B|-------------------------------|----------------------------------|
G|-------------------------------|----------------------------------|
D|-9---9---9-9-9-9-9-9-9-9-9-8-7-|-9---9-9-9-9-9-9-9-9-9-9-9--------|
A|-9---9---9-9-9-9-9-9-9-9-9-8-7-|-9---9-9-9-9-9-9-9-9-9-9-9-101213-|
E|-7---7---7-7-7-7-7-7-7-7-7-6-5-|-7---7-7-7-7-7-7-7-7-7-7-7-9-1011-|

e|------------------------------------------------------------------|
B|------------------------------------------------------------------|
G|------------------------------------------------------------------|
D|-14--141414141414141414141414---------141414141414141414141414----|
A|-14--1414141414141414141414141311-14--1414141414141414141414141311|
E|-12--121212121212121212121212119--12--121212121212121212121212119-|

e|---------------------------------|---------------------------------|
B|---------------------------------|---------------------------------|
G|---------------------------------|---------------------------------|
D|-9---9-9-9-9-9-9-9-9-9-9-9-9-8-7-|-9---9-9-9-9-9-9-9-9-9-9-9-9-8-7-|
A|-9---9-9-9-9-9-9-9-9-9-9-9-9-8-7-|-9---9-9-9-9-9-9-9-9-9-9-9-9-8-7-|
E|-7---7-7-7-7-7-7-7-7-7-7-7-7-6-5-|-7---7-7-7-7-7-7-7-7-7-7-7-7-6-5-|

e|-------------------------------------------------------------------|
B|-------------------------------------------------------------------|
G|---11111111111111111111111111111111----9-9-9-9-9-9-8-8-8-8-6-6-6-6-|
D|---111111111111111111111111111111118/9-9-9-9-9-9-9-8-8-8-8-6-6-6-6-|
A|-0-9-9-9-9-9-9-9-9-9-9-9-9-9-9-9-9-6/7-7-7-7-7-7-7-6-6-6---4-------|
E|-------------------------------------------------------------------|

e|-------------------------------|-----------------------------------|
B|-------------------------------|-----------------------------------|
G|-------------------------------|-------------------------------1111|
D|-9-9-9-9-9-9-9-9-9-9-9-9-9-8-7-|-9---9-9-9-9-9-9-9-9-9-9-9-9-111111|
A|-9-9-9-9-9-9-9-9-9-9-9-9-9-8-7-|-9---9-9-9-9-9-9-9-9-9-9-9-9-9-9-9-|
E|-7-7-7-7-7-7-7-7-7-7-7-7-7-6-5-|-7---7-7-7-7-7-7-7-7-7-7-7-7-------|



verse 3:
e|-------------------------------------------------------------------|
B|-------------------------------------------------------------------|
G|---8---------------------------------------------------------------|
D|---9-----------------------------------------------------------x---|
A|---9-----------------------------------------------------------x---|
E|---7---------------------------------------------------------------|
-|                                                                   |
e|-------------------------------------------------------------------|
B|-------------------------------------------------------------------|
G|-------------------------------------------------------------------|
D|---9---------------------------------------------------------------|
A|---9------------------------------------------------(11)/(12)/(13)-|
E|---7-------------------------------------------------(9)/(10)/(11)-|


e|-----------------------------------------------------------------|
B|-9-----------------------------------------------12~-------------|
G|-9---------------------------x-x-11---------------------------11-|
D|-9---------------------------x-x-9-------------------------------|
A|-7---------------------------x-x---------------------------------|
E|-----------------------------------------------------------------|
-|                                                                 |
e|-----------------------------------------------------------------|
B|-----------------------------------------------------------------|
G|-----------------------------------------------------------------|
D|-----------------------------------------------------------------|
A|-14----------------(+)---------------------------------------(+)-|
E|-12--------------------------------------------------------------|
   

e|-----------------------------------------------------------------|
B|-----------------------------------------------------------------|
G|---------------------------------8-8-8-8-8-8-8-8-8-11111111111111|
D|---11----------------------------9-9-9-9-9-9-9-9-9-11111111111111|
A|---9--------------/7-------------9-9-9-9-9-9-9-9-9-9-9-9-9-9-9-9-|
E|---------------------------------7-7-7-7-7-7-7-7-7---------------|
-| ^11's, not 1's.                                                 |
e|-----------------------------------------------------------------|
B|-----------------------------------------------------------------|
G|-----------------------------------------------------------------|
D|-----------------------------------------------------------111111|
A|-(+)---------------------------------------------------(+)-9-9-9-|
E|-----------------------------------------------------------------|


chorus 3:
e|---------------------------------------------------------------|
B|---------------------------------------------------------------|
G|-8-8-8-8-8-8-8-8-8-8-8-8-8-8-8-8-8-8-8-8-8-8-8-8-9-9-9-8-------|
D|-9-9-9-9-9-9-9-9-9-9-9-9-9-9-9-9-9-9-9-9-9-9-9-9-9-9-9-9-------|
A|-9-9-9-9-9-9-9-9-9-9-9-9-9-9-9-9-9-9-9-9-9-9-9-9-9-9-9-9-111213|
E|-7-7-7-7-7-7-7-7-7-7-7-7-7-7-7-7-7-7-7-7-7-7-7-7-7-7-7-7-9-1011|
-|                                                               |
e|---------------------------------------------------------------|
B|-12121212121212121212121212111012121212121212121212121212101112|
G|-x-x-x-x-x-x-x-x-x-x-x-x-x-x-x-x-x-x-x-x-x-x-x-x-x-x-x-x-x-x-x-|
D|-9-9-9-9-9-9-9-9-9-9-9-9-9-8-7-9-9-9-9-9-9-9-9-9-9-9-9-9-7-8-9-|
A|---------------------------------------------------------------|
E|---------------------------------------------------------------|
-|                                                               |
e|---------------------------------------------------------------|
B|---------------------------------------------------------------|
G|---------------------------------------------------------------|
D|-9-9-9-9-9-9-9-9-9-9-9-9-9-8-7-9---9-9-9-9-9-9-9-9-9-9-9-------|
A|-9-9-9-9-9-9-9-9-9-9-9-9-9-8-7-9---9-9-9-9-9-9-9-9-9-9-9-111213|
E|-7-7-7-7-7-7-7-7-7-7-7-7-7-6-5-7---7-7-7-7-7-7-7-7-7-7-7-9-1011|


e|-----------------------------------------------------------------|
B|-----------------------------------------------------------------|
G|-1313131313131313--131313131313138-8-8-8-8-8-8-8-8-8-8-8-8-8-8-8-|
D|-141414141414141412141414141414149-9-9-9-9-9-9-9-9-9-9-9-9-9-9-9-|
A|-141414141414141412141414141414149-9-9-9-9-9-9-9-9-9-9-9-9-9-9-9-|
E|-121212121212121212141414141414147-7-7-7-7-7-7-7-7-7-7-7-7-7-7-7-|
-|                                                                 |
e|-----------------------------------------------------------------|
B|-----------------------------------------------------------------|
G|-9-9-9-9-9-9-9-9-9-9-9-9-9-9-9-9-4-4-4-4-4-4-4-4-4-4-4-4-4-4-----|
D|-x-x-x-x-x-x-x-x-x-x-x-x-x-x-x-x-x-x-x-x-x-x-x-x-x-x-x-x-x-x-----|
A|-7-7-7-7-7-7-7-7-7-7-7-7-7-7-7-7-2-2-2-2-2-2-2-2-2-2-2-2-2-2-1-0-|
E|-----------------------------------------------------------------|
-|                                                                 |
e|-----------------------------------------------------------------|
B|-----------------------------------------------------------------|
G|-----------------------------------------------------------------|
D|-14--1414141414141414141414------9---9-9-9-9-9-9-9-9-9-9-9-9-8-7-|
A|-14--14141414141414141414141412119---9-9-9-9-9-9-9-9-9-9-9-9-8-7-|
E|-12--121212121212121212121212109-7---7-7-7-7-7-7-7-7-7-7-7-7-6-5-|


e|-------------------------------------------------------------------|
B|-1111111111111111109-9-9-9-9-9-9-9-8-8-8-8-8-8-8-------------------|
G|-1111111111111111109-9-9-9-9-9-9-9-8-8-8-8-8-8-8-------------------|
D|-1111111111111111109-9-9-9-9-9-9-9-8-8-8-8-8-8-8---6---6---4---4---|
A|-9-9-9-9-9-9-9-9-8-7-7-7-7-7-7-7-7-6-6-6-6-6-6-6-6-6---6---4---4---|
E|-------------------------------------------------4-4-4-4-4-2-2-2-2-|
-|                                                                   |
e|-------------------------------------------------------------------|
B|-------------------------------------------------------------------|
G|11111111111111111109-9-9-9-9-9-9-9-8-8-8-8-8-8-8-8-111111119-9-9-9-|
D|-x-x-x-x-x-x-x-x-x-x-x-x-x-x-x-x-x-x-x-x-x-x-x-x-x-x-x-x-x-x-x-x-x-|
A|-9-9-9-9-9-9-9-9-8-7-7-7-7-7-7-7-7-6-6-6-6-6-6-6-6-9-9-9-9-7-7-7-7-|
E|-------------------------------------------------------------------|
-|                                                                   |
e|-------------------------------------------------------------------|
B|-------------------------------------------------------------------|
G|---11111111111111109-9-9-9-9-9-9-9-8-8-8-8-8-8-8-8-----------------|
D|---11111111111111109-9-9-9-9-9-9-9-8-8-8-8-8-8-8-8-6---6---4---4---|
A|-0-9-9-9-9-9-9-9-8-7-7-7-7-7-7-7-7-6-6-6-6-6-6-6-6-6-6-6-6-4-4-4-4-|
E|---------------------------------------------------4-4-4-4-2-2-2-2-|


e|---------------------------------|
B|-9-9-9-9-9-9-9-9-1111111111111111|
G|-9-9-9-9-9-9-9-9-1111111111111111|
D|-9-9-9-9-9-9-9-9-1111111111111111|
A|-7-7-7-7-7-7-7-7-9-9-9-9-9-9-9-9-|
E|---------------------------------|
-|                                 |
e|---------------------------------|
B|---------------------------------|
G|-9-9-9-9-9-9-9-9-1111111111111111|
D|-x-x-x-x-x-x-x-x-x-x-x-x-x-x-x-x-|
A|-7-7-7-7-7-7-7-7-9-9-9-9-9-9-9-9-|
E|---------------------------------|
-|                                 |
e|---------------------------------|
B|---------------------------------|
G|-9-9-9-9-9-9-9-9-1111111111111111|
D|-9-9-9-9-9-9-9-9-1111111111111111|
A|-7-7-7-7-7-7-7-7-9-9-9-9-9-9-9-9-|
E|---------------------------------|


Outro:
e|-------------------------------|---------------------------------|
B|-------------------------------|---------------------------------|
G|-8-8-8-8-8-8-8-8-8-8-8-8-8-8-8-|-8-8-8-8-8-8-8-8-8-8-8-8-8-8-8-8-|
D|-9-9-9-9-9-9-9-9-9-9-9-9-9-9-9-|-9-9-9-9-9-9-9-9-9-9-9-9-9-9-9-9-|
A|-9-9-9-9-9-9-9-9-9-9-9-9-9-9-9-|-9-9-9-9-9-9-9-9-9-9-9-9-9-9-9-9-|
E|-7-7-7-7-7-7-7-7-7-7-7-7-7-7-7-| 7-7-7-7-7-7-7-7-7-7-7-7-7-7-7-7-|
-|                               |                                 |
e|-------------------------------|---------------------------------|
B|-------------------------------|---------------------------------|
G|-------------------------------|---------------------------------|
D|-9-9-9-9-9-9-9-9-9-9-9-9-9-8-7-|-9-9---9-9-9-9-9-9-9-9-9-9-9-----|
A|-9-9-9-9-9-9-9-9-9-9-9-9-9-8-7-|-9-9---9-9-9-9-9-9-9-9-9-9-9-8-7-|
E|-7-7-7-7-7-7-7-7-7-7-7-7-7-6-5-|-7-7---7-7-7-7-7-7-7-7-7-7-7-6-5-|


e|-------------------------------|---------------------------------|
B|-------------------------------|---------------------------------|
G|-8-8-8-8-8-8-8-8-8-8-8-8-8-8-8-|-6-8-8-8-8-8-8-8-8-8-8-8-8-8-8-8-|
D|-9-9-9-9-9-9-9-9-9-9-9-9-9-9-9-|-7-9-9-9-9-9-9-9-9-9-9-9-9-9-9-9-|
A|-9-9-9-9-9-9-9-9-9-9-9-9-9-9-9-|-7-9-9-9-9-9-9-9-9-9-9-9-9-9-9-9-|
E|-7-7-7-7-7-7-7-7-7-7-7-7-7-7-7-| 5-7-7-7-7-7-7-7-7-7-7-7-7-7-7-7-|
-|                               |                                 |
e|-------------------------------|---------------------------------|
B|-------------------------------|---------------------------------|
G|-------------------------------|---------------------------------|
D|-9-9-9-9-9-9-9-9-9-9-9-9-9-8-7-|-9-9-9-9-9-9-9-9-9-9-9-9-9-9-----|
A|-9-9-9-9-9-9-9-9-9-9-9-9-9-8-7-|-9-9-9-9-9-9-9-9-9-9-9-9-9-9-8-7-|
E|-7-7-7-7-7-7-7-7-7-7-7-7-7-6-5-|-7-7-7-7-7-7-7-7-7-7-7-7-7-7-6-5-|


e|------------------------------------------------------------------------|
B|------------------------------------------------------------------------|
G|--------------------------------------888888888-101010101111111111111111|
D|-9------9------9------9-------99999999999999999-------------------------|
A|-9------9------9------9-------99999999999999999-------------------------|
E|-7--(9)-7--(9)-7------7-------77777777777777777-------------------------|
-|                                                ^10's, 11's             |
e|------------------------------------------------------------------------|
B|------------------------------------------------------------------------|
G|------------------------------------------------------------------------|
D|-9------9------9------9--------9999999999999999999999999999999999999999-|
A|-9------9------9------9--------9999999999999999999999999999999999999999-|
E|-7------7------7------7--------7777777777777777777777777777777777777777-|


e|---------------------------------------------------------------------|
B|---------------------------------------------------------------------|
G|-999977777777--------------------------------------------------------|
D|-------------9p7----12p9---------------------------------------9\----|
A|----------------9p7-----12p9-9p7-/5----------------------------9\----|
E|-----------------------------------7~--------------------------7\----|
-|                                                                     |
e|---------------------------------------------------------------------|
B|---------------------------------------------------------------------|
G|---------------------------------------------------------------------|
D|-99999999999-x---x-x-x-xx-x--x-xx-x-x-x-x-xxx-xx-xxx-xx-x------9\----|
A|-99999999999-x---x-x-x-xx-x--x-xx-x-x-x-x-xxx-xx-xxx-xx-x------9\----|
E|-77777777777---------------------------------------------------7\----|


************************************

| /   slide up
| \   slide down
| h   hammer-on
| p   pull-off
| ~   vibrato
| +   harmonic
| x   Mute note
| ^   Bend
| pb  Pre-bend
| br  Bend release
| pbr Pre-bend release
| brb Bend release bend
| t   Trill

************************************
comments
print report bad tab
5 comments total. Showing first comments.
0 reply
tristen_jones wrote on February 21 2011, 02:36 am

THANK YOU SO MUCH. I HAVEN'T BEEN ABLE TO FIGURE OUT THE SOLO :D *****

0 reply
CowboyBebop wrote on March 10 2011, 06:31 pm

this looks pretty epic, do you think u cud put this (or jus the solo) into a gp file? it is tricky :P
gud job.

0 reply
Escape2.0 wrote on March 16 2011, 10:59 pm

Wow thank you so much!!!! Brilliant work XD I've been doing it by ear, thank you for a text version

I want to post or [tab]
guest
You may want to rate the tab now too:
select rating
Please do not post tabs as comments. Select "correction" instead!