Oops, an error
Loading. Please wait.

Welcome To The Black Parade Tab

ver5
ver5
More versions @911Tabs.com
56,701 views 66 this week
67 commentsread comments
1 2 3 4 5
excellent!
x 33
Autoscroll
+/-
esc
set tempo
stop
Contributor
Hey! There's an official Ultimate Guitar app which is ideal
for learning songs when you're away from computer. Get the app
WARNING: You are trying to view
                                    content from Ultimate-Guitar.com
                                    in an unauthorized application,
                                    which is prohibited.

                                    Please use an official Ultimate
                                    Guitar Tabs application for iPhone,
                                    iPad or Android to access legitimate
                                    chords, guitar, bass, and drum tabs
                                    from Ultimate-Guitar.com database.

                                    Type "ultimate guitar tabs" in Apple
                                    App Store's or Android Market's
                                    search to find the application.
Welcolme to the Black Parade
My chemical romance

I got this tab from a guitar world magazine so it is 100%. oh and in this tab I will 
include more then two guitars, so all gtrs 1,3, and 5 are really Ray Toro (lead guitar), 
gtrs 2 and 4 are really Frank Iero (Rhythm guitar).

All tuning is standard

~- vabrato
fb- full bend
hb- half bend
h-  hammer on
NH- harmonics
PM- palm mute
x-  rake
/-  slide up
\-  slide down

Intro:

Piano                               repeat as many times needed
|-------------19----------------------------------------------|
|--20------19------17---------20--------------17--------------|
|--------------------------19------17------16-------------19--|
|-------------------------------------------------19----------|
|-------------------------------------------------------------|
|-------------------------------------------------------------|
When I was a young boy my father took me into the city yo see a marching band. He said

Gtr.1                                                  x3
|--3------5------7/12---7------5--10---7------8--7\3-5--|
|-------------------------------------------------------|
|-------------------------------------------------------|
|-------------------------------------------------------|
|-------------------------------------------------------|
|-------------------------------------------------------|
Son when you grow would you be the savior of the broken and the damned.
He said will you defeat them your demons and all the non-beleivers the plans that they 
made. Beacause

Gtr.2
   ~~~~~~ ~~~~~~ ~~~~~~     ~~~~~~      ~~~~~~~~~~~~~~~
|------------------------------------------------------|
|------------------------------------------------------|
|------------------------------------------------------|
|--5------7------9------9-----------7---5---5---4--4-4-|
|---------------------------9----9---------------------|
|------------------------------------------------------|
one day I'll leave you a phantom to lead you in the summer to join the black parade.

Gtr.1
        ~~~~           ~~~~~
|---------------------------|
|---------------------------|
|-----------------7fb--5----|
|--7----7----7-5------------|
|---------------------------|
|---------------------------|

Gtr.1                                                                 x3
   ~~~        ~~~           |        ~~~ x2|                      ~~~~~~
|---------------------------|--------------|----------------------------|
|------------------------12-|-15fb---12----|15fb-15--13-13h15--12-12----|
|--12-----12--14--12-14-----|--------------|----------------------------|
|------12-------------------|--------------|----------------------------|
|---------------------------|--------------|----------------------------|
|---------------------------|--------------|----------------------------|
|
|Gtr.2                                                               x3
|  ~~~       ~~~            |        ~~~ x2|                     ~~~~~~
|---------------------------|--------------|---------------------------|
|------------------------8--|-10fb---8-----|12hb-12--8-8h10---8--8-----|
|--7-----7---9---7--9-------|--------------|---------------------------|
|-----9---------------------|--------------|---------------------------|
|---------------------------|--------------|---------------------------|
|---------------------------|--------------|---------------------------|
|
|Gtr.3                                    x2                          x3
|---------------------------|--------------|--------------------------|
|---------------------------|--------------|--------------------------|
|---------------------------|--------------|--------------------------|
|----5-------4-----------2--|--------7-----|2------------7------------|
|--5--------5-----------2---|--------5-5---|0-0----------5-5----5-----|
|--3--------2-----------0---|--------------|--------------------3-----|
When I was a young boy my father took me into the city yo see a marching band. He said 
when you grow would you be the savior of the broken and the damned.

Gtr.1
|----------------------------------------------------------------|
|----------------------------------------------------------------|
|--121212121212/1414141414/1919191919/21---161616161616/17---12--|
|--x-x-x-x-x-x--x-x-x-x-x--x-x-x-x-x--x--x-x-x-x-x-x-x--x--x-x---|
|--101010101010/1212121212/1717171717/19-x-141414141414/15-x-10--|
|----------------------------------------x-----------------x-----|
|
|Gtr.2
|----------------------------------------------------------------|
|----------------------------------------------------------------|
|----------------------------------------------------------------|
|---------------------------------------x-7---7-7-7-7-7------0---|
|--5-5-5-5-5-5-5-5-5-5-5-5-5--2-2-2-2-2-x-5---5-5-5-5-5------0---|
|--3-3-3-3-3-3-0-2-2-2-2-2-2--0-0-0-0-0-x--------------------0---|

Gtr.1
|-----------------------------------------------------------------|
|-----------------------------------------------------------------|
|--12121212121212121212121212---16-16--1616-16/17-16-141414141414-|
|--x-x-x-x-x-x-x-x-x-x-x-x-x--x-x--x---x-x--x--x--x--x-x-x-x-x-x--|
|--10101010101010101010101010-x-14-14--1414-14/15-14-121212121212-|
|-----------------------------x-----------------------------------|
|
|Gtr.2
|-----------------------------------------------------------------|
|-----------------------------------------------------------------|
|-----------------------------------------------------------------|
|--5-5-5-5-5-5-5-5-5-5-5-5-5--x-x--7---7---7--7---7--7-7-7-7-7-7--|
|--3-3-3-3-3-3-3-3-3-3-3-3-3--x-x--5---5---5--5---5--5-5-5-5-5-5--|
|-----------------------------x-x---------------------------------|

Verse:

Gtr.1&2
|    PM........................  PM   PM   PM
|-----------------------------------------------|
|-----------------------------------------------|
|-----------------------------------5----5---5--|
|------------------------------x-55-5-55-5-5-5--|
|--5-55555-5-5555555-5-5555555-x-33---33---3----|
|--3-33333-0-2222222-0-1111111-x----------------|
Soemtimes I get the feeling she's watching over me and

Gtr.1
|  PM.....    PM.....                  N.H.......
|-------------------------------------------------|
|------------------------------------------5------|
|-----------------------77--7/9-9-0----5-7-----5--|
|--5555555-x---------x--xx--x---x-0---------------|
|--3333333-x-5555555-x--55--5/7-7-0---------------|
|----------x-3333333-x----------------------------|
|
|Gtr.2
|  PM.....    PM.....   PM........................
|----------------------------------------------------|
|--------------------------------------------------8-|
|--------------------------------------------------x-|
|--5555555-x---------x--77-7-7-7-7-7-7-7-7-7-7-7-7-7-|
|--3333333-x-5555555-x--55-5-5-5-5-5-5-5-5-5-5-5-5-5-|
|----------x-3333333-x-------------------------------|
other times I feel like I should go. When

Gtr.1&2
|  PM   PM   PM  PM   PM   PM  PM   PM   PM   PM   PM   PM
|------------------------------------------------------------|
|------------------------------------------------------------|
|------------------------------------------------5----5---5--|
|-----5----5---5----5----5---5----5----5---5-----x----x---x--|
|-----5----5---5----5----5---5----5----5---5--33-3-33-3-3-3--|
|--33---33---3---22---22---2---11---11---1-------------------|
through it all the rise and fall the bodies in the streets and

Gtr.1
|  PM   PM   PM  PM   PM..
|---------------------------------------------------------|
|---------------------------------------------------------|
|-----5----5---5----5-------4-0--7777777-7/16--141414-----|
|-----5----5---5----5-------5-0--xxxxxxx-x-----x-x-x---x--|
|--33---33---3----------------0--5555555-5/14--121212--x--|
|----------------33---333------------------------------x--|
|
|Gtr.2
|  PM   PM   PM  PM   PM..
|---------------------------------------------------------|
|---------------------------------------------------------|
|-----5----5---5----5-------4-0---------------------------|
|-----5----5---5----5-------5-0--7777777-7-7---7-7-7---x--|
|--33---33---3----------------0--5555555-5-5---5-5-5---x--|
|----------------33---333------------------------------x--|
when you're gone we want you all to know
We'll carry on!

Chorus:

Gtr.1
|-----------------------------------------------------------|
|-----------------------------------------------------------|
|--1212121212---16---1111/12---99999---12121212-12/14----14-|
|--x-x-x-x-x--x-x--x-x-x--x----xxxxx-x-x-x-x-x--x--x---x-x--|
|--1010101010-x-14-x-9-9-/10---77777-x-10101010-10/12--x-12-|
|-------------x----x-----------------x-----------------x----|
|
|Gtr.2
|-----------------------------------------------------------|
|-----------------------------------------------------------|
|-----------------------------------------------------------|
|-------------------------------------7-7-7--------7---x-7--|
|--5-5-5-5-5-5--55-5---555-----222222-5-5-5--------5---x-5--|
|--3-3-3-3-3-3--22-2---222--0--000000------------------x----|
               We'll carry on and though you're

Gtr.1
|-----------------------------------------------------------|
|-----------------------------------------------------------|
|--121212121212121212121212-----16161616-1716-1414141414----|
|--x-x-x-x-x-x-x-x-x-x-x-x------x-x-x-x--x-x--x-x-x-x-x-----|
|--101010101010101010101010--00-14141414-1514-1212121212-00-|
|----------------------------00--------------------------00-|
|
|Gtr.2
|-----------------------------------------------------------|
|-----------------------------------------------------------|
|-----------------------------------------------------------|
|--5-5-5-5-5-5-5-5-5-5-5-5-----7-7----7--7-7--7-7-7---7-7---|
|--3-3-3-3-3-3-3-3-3-3-3-3--0--5-5----5--5-5--5-5-5---5-5---|
|---------------------------0-------------------------------|
dead and gone believe me your memory will carry on

Gtr.1
|-----------------------------------------------------------|
|-----------------------------------------------------------|
|--1212121212---16---1111/12---99999---12121212-12/14-------|
|--x-x-x-x-x--x-x--x-x-x--x----xxxxx-x-x-x-x-x--x--x---x-x--|
|--1010101010-x-14-x-9-9-/10---77777-x-10101010-10/12--x-x--|
|-------------x----x-----------------x-----------------x-x--|
|
|Gtr.2
|-----------------------------------------------------------|
|-----------------------------------------------------------|
|-----------------------------------------------------------|
|-------------------------------------7-7-7--------7---x-7--|
|--5-5-5-5-5-5--55-5---555-----222222-5-5-5--------5---x-5--|
|--3-3-3-3-3-3--22-2---222--0--000000------------------x----|
               We'll carry one and in my

Gtr.1                      ___________________________________
                           |first ending        back to verse|
|--------------------------|---------------------------------|
|--------------------------|---------------------------------|
|--1212121212---1111-999---|16161616-17-14-141414141414------|
|--x-x-x-x-x--x-x-x--xxx-0-|x-x-x-x--x--x--x-x-x-x-x-x--0----|
|--1010101010-x-9-9--777-0-|14141414-15-12-121212121212-0----|
|-------------x----------0-|----------------------------0----|
|                          |                                 |
|Gtr.2                     |                                 |
|--------------------------|---------------------------------|
|--------------------------|---------------------------------|
|--------------------------|---------------------------------|
|--5-5-5-5-5-5-5-5-5-5-5---|-7-7----7--7-7--7-7-7---7-7-0-0--|
|--3-3-3-3-3-3-3-3-3-3-3-0-|-5-5----5--5-5--5-5-5---5-5-0-0--|
|------------------------0-|----------------------------0-0--|
heart I can't contain it the anthem will explain it.

________________________________
|Second ending                 |
|Gtr.1                         |
|------------------------------|
|------------------------------|
|--12121212-17-16--14----12----|
|--x-x-x-x--x--x---x-----x-----|
|--14141414-15-14--12----10----|
|------------------------------|
|                              |
|Gtr.2                         |
|------------------------------|
|------------------------------|
|------------------------------|
|--7-7-7-7-7-7-7---7-----5-----|
|--5-5-5-5-5-5-5---5-----3-----|
|------------------------------|

verse#2 (same as verse#1)

A world that sends you feeling from decimated dreams your misery and hate wil kill us 
so paint it black and take the back lets shout it out and clear defiant to th end we hear 
call. We'll carry on!

Chorus (with second ending)

Bridge:

Gtr.1                                                     x2
|-----------------------------------------------------------|
|-----------------------------------------------------------|
|--111111-1111111111--1111--9-99-14141414--1212-12-1616-16--|
|--x-x-x--x-x-x-x-x---x-x---x-xx-x-x-x-x---x-x--x--x-x--x---|
|--9-9-9--9-9-9-9-9---9-9---7-77-12121212--1010-10-1414-14--|
|-----------------------------------------------------------|
|
|Gtr.2                                                   x2
|----------------------------------------------------------|
|----------------------------------------------------------|
|----------------------------------------------------------|
|---------------------------------------------------0--0---|
|--2-2-2--2-2-2-2-2--2-2---2-22-2-2-2-2---2-2--2--2-0--0---|
|--0-0-0--0-0-0-0-0--0-0---0-00-0-0-0-0---0-0--0--0-0--0---|
on and on we carry through the years  oh ha ha
Disapointment faces of     your peers oh ha ha

Gtr.1
|-------------------------------------------------------------|
|-------------------------------------------------------------|
|--1717--16--14--14--12--121212-0------8----10----12---15\14--|
|--x-x---x---x---x---x---x-x-x--0------x----x-----x----x------|
|--1515--14--12--12--10--101010-0------6----8-----10---13\12--|
|-------------------------------------------------------------|
|
|Gtr.2
|------------------------------------------------------------|
|------------------------------------------------------------|
|-------------------------------------8----7-----5----3------|
|--5-5---5---5---5---5---5-5-5--0-----x----x-----x----3------|
|--3-3---3---3---3---3---3-3-3--0-----6----5-----3----1------|
|------------------------------------------------------------|
Take a look at me 'cause I could not care at...

Gtr.1
|----------------------------------------------------------|
|----------------------------------------------------------|
|--------------------------------------------5------7------|
|--9----12------10-9-7-9-7-9---10---5--------x------x------|
|--x----x-------x--x-x-x-x-x---x----x--------3------5------|
|--7----10------8--7-5-7-5-7---8----3----------------------|
|
|Gtr.2
|----------------------------------------------------------|
|----------------------------------------------------------|
|-------------------------7--------5--------5------7-------|
|--5----4-----------------x--------x--------x------x---4---|
|--x----x-----------------5--------3--------3------5---x---|
|--3----2------0-----------------------3---------------2---|
Do or die you'll never make me beacause the world will never take my heart. go and try 
never break me. you want it all. You wanna play this

Gtr.1
|-----------------------------------------------------|
|-----------------------------------------------------|
|--4--------7--------9--------7----4----9--------7----|
|--x--------x--------x--------x----x----x--------x----|
|--2--------5--------7--------5----2----7--------5----|
|-----------------------------------------------------|
|
|Gtr.2
|-----------------------------------------------------|
|-----------------------------------------------------|
|---------------------------------------5-------------|
|--5--------4-----------------4---------x--------5----|
|--x--------x-----------------x---------3--------x----|
|--3--------2--------0--------2------------------3----|
part. Won't explian. I'm not ashamed. I'm gonna show my scar. You're just a chair far 
the broken

Gtr.1
|                               ~~~~~~~~~~~~~~~~~~~~~~~~~
|--------------------------------------------------------|
|-----------------------121315-15------------------------|
|----------------111214----------------------------------|
|---------101214-----------------------------------------|
|--101214------------------------------------------------|
|--------------------------------------------------------|
|
|Gtr.2
|                                                    ~~~~
|---------------------------------------------121415/17--|
|--------------------------------------121315------------|
|--------------------------------111214------------------|
|--------------------------------------------------------|
|--------------------------------------------------------|
|--------------------------------------------------------|
|
|Gtr.3
|--------------------------------------------------------|
|--------------------------------------------------------|
|--9-----------------------------11----------------------|
|--x-----------------------------x-----------------------|
|--7-----------------------------9-----------------------|
|--------------------------------------------------------|
|
|Gtr.4
|--------------------------------------------------------|
|--------------------------------------------------------|
|--5-----------------------------7-----------------------|
|--x-----------------------------x-----------------------|
|--3-----------------------------5-----------------------|
|--------------------------------------------------------|
Listen here because it's only

Gtr.1
|      ~~~~~
|--16hb-----17-16-14-16----14-16---16hb-16---14--|
|------------------------------------------------|
|------------------------------------------------|
|------------------------------------------------|
|------------------------------------------------|
|------------------------------------------------|
|
|Gtr.2
|           ~~~~~~
|--19fb(x4)-19(19)17-19-19-17-19fb-19hb(19)--17--|
|------------------------------------------------|
|------------------------------------------------|
|------------------------------------------------|
|------------------------------------------------|
|------------------------------------------------|
|
|Gtr.3
|------------------------------------------------|
|------------------------------------------------|
|--6-----------------9---------------------------|
|--x-----------------x---------------------------|
|--4-----------------7---------------------------|
|------------------------------------------------|
|
|Gtr.4
|------------------------------------------------|
|------------------------------------------------|
|------------------------------------------------|
|--7-----------------6---------------------------|
|--x-----------------x---------------------------|
|--5-----------------4---------------------------|
I'm just a man. I'm not a hero

Gtr.1
|---------------------------------14-------|
|-----------------------------------17-14--|
|------------------------------------------|
|------------------------------------------|
|------------------------------------------|
|------------------------------------------|
|
|Gtr.2
|        ~~~~~               ~~~~~~~~~~~~~~
|--16-14-----------------12----------------|
|--------14----14-10-10--------10----------|
|-----------------------9------------------|
|------------------------------------------|
|------------------------------------------|
|------------------------------------------|
|
|Gtr.3
|        ~~~~~          PM     ~~~~~~~~~~~~
|--19-17-------17-17\16---16hb-16----------|
|--------19--------------------------------|
|------------------------------------------|
|------------------------------------------|
|-----------------------0------------------|
|------------------------------------------|
|
|Gtr.4
|------------------------------------------|
|------------------------------------------|
|--14----------13--------------------------|
|--x-----------x---------------------------|
|--12----------11--------------------------|
|------------------------------------------|
|
|Gtr.5
|------------------------------------------|
|------------------------------------------|
|--11----------9---------------------------|
|--x-----------x---------------------------|
|--9-----------7---------------------------|
|------------------------------------------|
Just a boy who's ment to sing this song

Gtr.1
|--14------------14------------------------------------------------|
|-----17-14---------17-14-17fb--17-14-17-14------17-14-------------|
|-----------16fb----------------------------16fb--------16fb-14(x2)|
|------------------------------------------------------------------|
|------------------------------------------------------------------|
|------------------------------------------------------------------|
|
|Gtr.2
|  ~~~~~~~~~~~~~~~~~~~~~~~~~~~~~~~~~~~~~~~~~~~~~~~~~~~~~~~~~~~~~~~~
|------------------------------------------------------------------|
|--(10)------------------------------------------------------------|
|------------------------------------------------------------------|
|------------------------------------------------------------------|
|------------------------------------------------------------------|
|------------------------------------------------------------------|
|
|Gtr.3
|   ~~~~~~~~~~~~~~~~~~~~~~~~~~~~~~~~~~~~~~~~~~~~~~~~~~~~~~~~~~~~~~~
|--(16)------------------------------------------------------------|
|------------------------------------------------------------------|
|------------------------------------------------------------------|
|------------------------------------------------------------------|
|------------------------------------------------------------------|
|------------------------------------------------------------------|
|
|Gtr.4
|------------------------------------------------------------------|
|------------------------------------------------------------------|
|--11---------------------------9----------------------------------|
|--x----------------------------x----------------------------------|
|--9----------------------------7----------------------------------|
|------------------------------------------------------------------|
|
|Gtr.5
|------------------------------------------------------------------|
|------------------------------------------------------------------|
|--7---------------------------7-----------------------------------|
|--x---------------------------x-----------------------------------|
|--5---------------------------5-----------------------------------|
|------------------------------------------------------------------|
Just a man. I'm not a hero

Gtr.1
|                                         ~~~~~~~~~
|--------------------19fb(x2)-19-17-19------------------|
|--------------------------------------17-17-(17)--17---|
|--16---------------------------------------------------|
|-----14-14(14)--14-----------------14-------------14---|
|-------------------------------------------------------|
|-------------------------------------------------------|
|
|Gtr.2
|    PM.........   PM........        PM........
|-------------------------------------------------------|
|-------------------------------------------------------|
|-------------------------------------------------------|
|--9-9-9-9-9-9-9-9-9-9--9-9-9------9-9-9-9-9-9-----9/---|
|--7-7-7-7-7-7-7-7-7-7--7-7-7------7-7-7-7-7-7-----7/---|
|--0-0-0-0-0-0-0-0-0-0--0-0-0------0-0-0-0-0-0-----0/---|
I Don't care. We'll carry on!

Chorus#3

Gtr.1
|----------------------------------------------------------|
|----------------------------------------------------------|
|--1414141414-131313-999---1818181818---16161616-16/18-----|
|--x-x-x-x-x--x-x-x--xxx-0-x-x-x-x-x--0-x-x-x-x--x-----0-0-|
|--1212121212-111111-777-0-1616161616-0-14141414-14/16-0-0-|
|----------------------------------------------------------|
|
|Gtr.2
|----------------------------------------------------------|
|----------------------------------------------------------|
|----------------------------------------------------------|
|---------------------------------------9-9-9----9--9------|
|--7-7-7-7-7--7-7-7--777---4-4-4-4-4--0-7-7-7----7--7--0-0-|
|--5-5-5-5-0--4-4-4--444-0-2-2-2-2-2--0----------------0-0-|
          We'll carry on. and though you're

Gtr.1
|--------------------------------------------------------------------|
|--------------------------------------------------------------------|
|--14---14-141414141414-14-141414---13131313131313-14-1414/16-16-----|
|--x----x--x-x-x-x-x-x--x--x-x-x--0-x-x-x-x-x-x-x--x--x-x-----x--0-0-|
|--12---12-121212121212-12-121212-0-11111111111111-12-1212/14-14-0-0-|
|---------------------------------0------------------------------0-0-|
|
|Gtr.2
|-------------------------------------------------------------------|
|-------------------------------------------------------------------|
|-------------------------------------------------------------------|
|--7---7--7-7-7-7-7-7--7--7-7------9-9-9-9-9-9-9--9--9-9--9--9--0-0-|
|--5---5--5-5-5-5-5-5--5--5-5------7-7-7-7-7-7-7--7--7-7--7--7--0-0-|
|-----------------------------0--0------------------------------0-0-|
Dead and gone beleive me  your memory will carry on!

Gtr.1
|----------------------------------------------------------|
|----------------------------------------------------------|
|--141414141414-16-16-16-1616-181818181818181818-16--------|
|--x-x-x-x-x-x--x--x--x--x-x--x-x-x-x-x-x-x-x-x--x---------|
|--121212121212-14-14-14-1414-161616161616161616-14--------|
|----------------------------------------------------------|
|
|Gtr.2
|----------------------------------------------------------|
|----------------------------------------------------------|
|----------------------------------------------------------|
|---------------------------------------9-9-9----9--9------|
|--7-7-7-7-7--7-7-7--777---4-4-4-4-4--0-7-7-7----7--7--0-0-|
|--5-5-5-5-0--4-4-4--444-0-2-2-2-2-2--0----------------0-0-|
          We'll carry on. and

Gtr.1
|---------------------------------------------|
|---------------------------------------------|
|--16-16-18-1818-14-14141414141414141414-1616-|
|--x--x--x--x-x--x--x-x-x-x-x-x-x-x-x-x--x-x--|
|--14-14-16-1616-12-12121212121212121212-1414-|
|---------------------------------------------|
|
|Gtr.2
|--------------------------------------------|
|--------------------------------------------|
|--------------------------------------------|
|--7---7--7-77--7--7-7-7-7-7-7-7-7-7-7--0-0--|
|--5---5--5-55--5--5-5-5-5-5-5-5-5-5-5--0-0--|
|---------------------------------------0-0--|
though your broken and defeated. Your

Gtr.1
|-------------------------------|
|-------------------------------|
|--19-/21-18------19------18-19-|
|--x---x--x-------x-------x--x--|
|--17-/19-16------17------16-17-|
|-------------------------------|
|
|Gtr.2
|-------------------------------|
|-------------------------------|
|-------------------------------|
|--9-999--9-99-9--9-99-9--------|
|--7-777--7-77-7--7-77-7--0--0--|
|-------------------------------|
Weary widow marches

outro:

Gtr.1
|-----------------------------------------------------|
|-----------------------------------------------------|
|--21--21-19---18\16-18---19-18\16-18-16-14----14-14--|
|--x---x--x----x-----x----x--x-----x--x--x-----x--x---|
|--19--19-17---16\14-16---17-16\14-16-14-12----12-12--|
|-----------------------------------------------------|
|
|Gtr.2
|-----------------------------------------------------|
|-----------------------------------------------------|
|-----------------------------------------------------|
|-----------------------------------------------------|
|--7------7-7----------7-4---------------2------------|
|--5------5-4----------4-2---------------0------------|
(On)
Do or die you'll never make me beacue the world wil atke my

Gtr.1
|------------------------------------------------------------------|
|------------------------------------------------------------------|
|--19----18-16--14----161616-131313-14---16---21---21-19---1818-14-|
|--x-----x--x---x-----x-x-x--x-x-x--x----x----x----x--x----x-x--x--|
|--17----16-14--12----141414-111111-12---14---19---19-17---1616-12-|
|------------------------------------------------------------------|
|
|Gtr.2
|-----------------------------------------------------------------|
|-----------------------------------------------------------------|
|-----------------------------------------------------------------|
|--7--------7---7-----7-7-----------------------------------------|
|--5--------5---5-----5-5-2--2-2-2--2----2--0-7------7--7------7--|
|-------------------------0--0-0-0--0----0--0-5------5--4------4--|
                                                    (We'll carry on)
Heart. go and try you'll never break me. You want it all          I'm
                (On)
Gonna play this part. Do or die. You'll never make me

Gtr.1
|-------------------------------------------------------------------|
|-------------------------------------------------------------------|
|--19-18\16-18-16-14-1414-19-18--14\16-14-14-16-16---18\--13---13---|
|--x--x-----x--x--x--x-x--x--x---x-----x--x--x--x----x----x----x----|
|--17-16\14-16-14-12-1212-17-16--12\14-12-12-14-14---16\--11---11---|
|-------------------------------------------------------------------|
|
|Gtr.2
|-------------------------------------------------------------------|
|-------------------------------------------------------------------|
|-------------------------------------------------------------------|
|-------------------------7-----7------7--7--7----------------------|
|--4-----------4--2--2-2--5-----5------5--5--5--2--2-2----2--2-2--2-|
|--2-----------2--0--0-0------------------------0--0-0----0--0-0--0-|
                  We'll carry              on            We'll        carry
beacause the world   will never take my heart. Go ad try you'll never break
                 We'll carry
me. You want it all     I'm gonna play this

Gtr.1
|----------|
|----------|
|--14------|
|--x-------|
|--12------|
|----------|
|
|Gtr.2
|----------|
|----------|
|----------|
|----------|
|--2-------|
|--0-------|
On
part.

Enjoy.

PS. if this is a little confusing I would suggest getting a copy of the actually tab 
the magazine. (Holiday issue 2006)
comments
print report bad tab
67 comments total. Showing first comments.
0 reply
To The End wrote on November 4 2006, 06:06 am

great, now i have the perfect version.. but you are right it is confusing.. thx allot for posting this

0 reply
Mathamology wrote on November 4 2006, 08:21 am

I know its a guitar world tab, but the piano intro sounds wrong... But now I can see how close I was with my other two tabs :D thx

0 reply
To The End wrote on November 4 2006, 05:02 pm

now that i look closely at the intro, guitar 1 and 2 sound actually sound quite wrong.... r u sure u tab it properly?.... it will help a lot if u put the spacing right

I want to post or [tab]
guest
You may want to rate the tab now too:
select rating
Please do not post tabs as comments. Select "correction" instead!