Oops, an error
Loading. Please wait.

Welcome To The Black Parade Tab

ver6
ver6
More versions @911Tabs.com
26,775 views 51 this week
15 commentsread comments
1 2 3 4 5
excellent!
x 18
Autoscroll
+/-
esc
set tempo
stop
Contributor
Difficulty
intermediate
Hey! There's an official Ultimate Guitar app which is ideal
for learning songs when you're away from computer. Get the app
WARNING: You are trying to view
                                    content from Ultimate-Guitar.com
                                    in an unauthorized application,
                                    which is prohibited.

                                    Please use an official Ultimate
                                    Guitar Tabs application for iPhone,
                                    iPad or Android to access legitimate
                                    chords, guitar, bass, and drum tabs
                                    from Ultimate-Guitar.com database.

                                    Type "ultimate guitar tabs" in Apple
                                    App Store's or Android Market's
                                    search to find the application.
                      Welcome To The Black Parade Live
Tuning: Standard

Ray Toro Guitar 1
Frank Iero Guitar 2

This is the very near the exact way my chemical romance play this song live,
the major changes occur in the intro, Breackdown and outro.

Please leave a comment or PM me with any comments or corrections.

INTRO

Piano
      H         Q     Q        H         Q     Q       H         Q     Q
E||--15--------14----19----|------------------------|-----------------------|
B||------------------------|--17--------------20----|------------------17---|
G||------------------------|------------19----------|--17--------16---------|
D||------------------------|------------------------|-----------------------|
A||------------------------|------------------------|-----------------------|
E||------------------------|------------------------|-----------------------|

      H         H
 ||-----------------------|
 ||------------15---------|
 ||--14-------------------|
 ||-----------------------| (repeat until Instrumental part comes in)
 ||-----------------------|
 ||-----------------------|


GUITAR 2: (go when drums come in)

((NOTE))
Frank sometimes varies when playin this part, he plays "WAY 1" most of the time, but  he 
plays "WAY 2" which is 12 semitones higher than "WAY 1"


WAY 1

   H        H           E    Q    E              E   Q    E  H
|--3--------5--------|--7S--12----7-----------|--5--10----7--L--------|
|--------------------|------------------------|-----------------------|
|--------------------|------------------------|-----------------------|
|--------------------|------------------------|-----------------------|
|--------------------|------------------------|-----------------------|
|--------------------|------------------------|-----------------------|
   E  Q     E  H
|--8--7----\3--5--------|
|-----------------------|
|-----------------------| (Repeat until instrumental part comes in)
|-----------------------|
|-----------------------|
|-----------------------|


WAY 2

   H         H            E    Q     E             E   Q     E  H
--15--------17--------|--19S--24-----------------|------22-----------------|
----------------------|-------------24-----------|--22--------24--L--------|
----------------------|--------------------------|-------------------------|
----------------------|--------------------------|-------------------------|
----------------------|--------------------------|-------------------------|
----------------------|--------------------------|-------------------------|


   E   Q      E   H
--20--19---------17--------|
------------\20------------|
---------------------------|
---------------------------|  (Repeat until instrumental part comes in)
---------------------------|
---------------------------|

GUITAR 1: (comes in when guitar two has repeated above twice)

   <         <            <         <
   H         H            H         H
|----------------------|-------------------------|
|----------------------|-------------------------|
|------------7~--------|--9~---------------------|
|--5~------------------|------------4~-----------|
|----------------------|-------------------------|
|----------------------|-------------------------|

  <         <            <
  H         H            H         E.    S Q
|----------------------|--------------------------|
|----------------------|--------------------------|
|--7~--------5~--------|--4~--------7br---L-5~----|
|----------------------|--------------------------|
|----------------------|--------------------------|
|----------------------|--------------------------|


INSTRUMENTAL PART

GUITAR 2

   H        H           H        H           H        H
|--------------------|--------------------|--------------------|
|--------------------|--------------------|--------------------|
|--------------------|-----------2--------|--5--------4--------|
|--5--------4--------|--2--------2--------|--5--------5--------|
|--5--------5--------|--2--------0--------|--3--------2--------|
|--3--------2--------|--0-----------------|--------------------|


   H        H                     W                        W
|--------------------|         |------------------------|-------------------|
|--------------------|         |------------------------|-------------------|
|--2--------7--------|         |------------------------|-------------------|
|--2--------7--------| X3 THEN |--5---------------------|--L----------------|
|--0--------5--------|         |--5---------------------|--L----------------|
|--------------------|         |--3---------------------|--L----------------|


GUITAR 1

  Q.      S S  E   Q     S  S     E   E     E   E    H
|------------------------------|-------------------------------|
|--8~--------8-10~--L----------|--12--15br---L--12~---L--------|
|----------7-------------12-14-|-------------------------------|
|------------------------------|-------------------------------|
|------------------------------|-------------------------------|
|------------------------------|-------------------------------|

   E     Q     E   H            E     Q     E.      Q
|----------------------------|------------------------------|
|--15br--15----12~--L--------|--15br--15----13------12------|
|----------------------------|------------------------------|
|----------------------------|------------------------------| X3 THEN
|----------------------------|------------------------------|
|----------------------------|------------------------------|

   W                Q       W
|-------------------------|-------------------|
|-------------------------|-------------------|
|--12----------------L----|-------------------|
|-------------------------|-------------------|
|-------------------------|-------------------|
|-------------------------|-------------------|


INTRO 2

GUITAR 2

   E   E   E   E   E   E   E   E       E   E   E   E   E   E   E   E
|----------------------------------|-----------------------------------|
|----------------------------------|-----------------------------------|
|--12--12--12--12--12--12--12--12--|--/14--14--14--14--14--14--14--14--|
|---x---x---x---x---x---x---x---x--|----x---x---x---x---x---x---x---x--|
|--10--10--10--10--10--10--10--10--|--/12--12--12--12--12--12--12--12--|
|----------------------------------|-----------------------------------|

    E   E   E   E   E    Q     E      E   E   E   E   E    Q     E
|----------------------------------|---------------------------------|
|----------------------------------|---------------------------------|
|--/19--19--19--19--19--/21----16--|--16--16--16--16--16--/17----12--|
|----x---x---x---x---x----x-----x--|---x---x---x---x---x----x-----x--|
|--/17--17--17--17--17--/19----14--|--14--14--14--14--14--/15----10--|
|----------------------------------|---------------------------------|

   E   E   E   E   E   E   E   E      E   E   E   E   E   E   E   E
|----------------------------------|----------------------------------|
|----------------------------------|----------------------------------|
|--12--12--12--12--12--12--12--12--|--12--12--12--12--12--12--12--12--|
|---x---x---x---x---x---x---x---x--|---x---x---x---x---x---x---x---x--|
|--10--10--10--10--10--10--10--10--|--10--10--10--10--10--10--10--10--|
|----------------------------------|----------------------------------|

   E   E   E   E   E   E   E   E      E   E   E   E   E   E   E   E
|----------------------------------|----------------------------------|
|----------------------------------|----------------------------------|
|--16--16--16--16--16--17--16--14--|--14--14--14--14--14--14--14--14--|
|---x---x---x---x---x---x---x---x--|---x---x---x---x---x---x---x---x--|
|--14--14--14--14--14--15--14--12--|--12--12--12--12--12--12--12--12--|
|----------------------------------|----------------------------------|


GUITAR 1

 E  E  E  E  E  E  E  E     E  E  E  E  E  E  E  E
|--------------------------|--------------------------|
|--------------------------|--------------------------|
|--------------------------|--------------------------|
|--------------------------|--------------------------|
|--5--5--5--5--5--5--5--5--|--5--5--5--5--5--5--5--5--|
|--3--3--3--3--3--3--3--0--|--2--2--2--2--2--2--2--2--|

  E  E  E  E  E  E  E  E     E  E  E  E  E  E  E  E
|--------------------------|--------------------------|
|--------------------------|--------------------------|
|--------------------------|--------------------------|
|--------------------------|--7--7--7--7--7--7--7--7--|
|--2--2--2--2--2--2--2--2--|--5--5--5--5--5--5--5--5--|
|--0--0--0--0--0--0--0--0--|--------------------------|

  E  E  E  E  E  E  E  E     E  E  E  E  E  E  E  E
|--------------------------|--------------------------|
|--------------------------|--------------------------|
|--------------------------|--------------------------|
|--5--5--5--5--5--5--5--5--|--5--5--5--5--5--5--5--5--|
|--3--3--3--3--3--3--3--3--|--3--3--3--3--3--3--3--3--|
|--------------------------|--------------------------|

  E  E  E  E  E  E  E  E     E  E  E  E  E  E  E  E
|--------------------------|--------------------------|
|--------------------------|--------------------------|
|--------------------------|--------------------------|
|--7--7--7--7--7--7--7--7--|--7--7--7--7--7--7--7--7--|
|--5--5--5--5--5--5--5--5--|--5--5--5--5--5--5--5--5--|
|--------------------------|--------------------------|


VERSE

GUITAR 2

  PM PM PM PM PM PM PM PM   PM PM PM PM PM PM PM PM
  E  E  E  E  E  E  E  E     E  E  E  E  E  E  E  E
--------------------------|--------------------------|
--------------------------|--------------------------|
--------------------------|--------------------------|
--------------------------|--------------------------|
--5--5--5--5--5--5--5--5--|--5--5--5--5--5--5--5--5--|
--3--3--3--3--3--3--3--0--|--2--2--2--2--2--2--2--0--|

  PM PM PM PM PM PM PM PM    PM PM    PM PM    PM
  E  E  E  E  E  E  E  E     E  E  E  E  E  E  E  E
--------------------------|--------------------------|
--------------------------|--------------------------|
--------------------------|--------5--------5-----5--|
--------------------------|--5--5--5--5--5--5--5--5--|
--5--5--5--5--5--5--5--5--|--3--3-----3--3-----3-----|
--1--1--1--1--1--1--1--1--|--------------------------|

  PM PM PM PM PM PM PM PM    PM PM PM PM PM PM PM PM
  E  E  E  E  E  E  E  E     E  E  E  E  E  E  E  E
--------------------------|--------------------------|
--------------------------|--------------------------|
--------------------------|--------------------------|
--5--5--5--5--5--5--5--5--|--------------------------|
--3--3--3--3--3--3--3--3--|--5--5--5--5--5--5--5--5--|
--------------------------|--3--3--3--3--3--3--3--3--|

                                NH   NH   NH     NH
  E  E  E  E   E  E  E  E       E    E    Q      Q    E  E
---------------------------|--------------------------------|
---------------------------|------------<>5-----------------|
--7--7-----7--/9--9--------|--<>5--<>5---------<>5----L-----|
--x--x-----x---x--x--------|--------------------------------|
--5--5--x--5--/7--7--x--0--|--------------------------------|
------------------------0--|--------------------------------|

  PM PM    PM PM    PM       PM PM PM PM PM PM PM PM
  E  E  E  E  E  E  E  E     E  E  E  E  E  E  E  E
--------------------------|--------------------------|
--------------------------|--------------------------|
--------------------------|--------------------------|
--------------------------|--------------------------|
--5--5--5--5--5--5--5--5--|--5--5--5--5--5--5--5--5--|
--3--3--3--3--3--3--3--3--|--2--2--2--2--2--2--2--2--|

  PM PM PM PM PM PM PM PM    PM PM    PM PM    PM
  E  E  E  E  E  E  E  E     E  E  E  E  E  E  E  E
--------------------------|--------------------------|
--------------------------|--------------------------|
--------------------------|--------5--------5-----5--|
--------------------------|--5--5--5--5--5--5--5--5--|
--5--5--5--5--5--5--5--5--|--3--3-----3--3-----3-----|
--1--1--1--1--1--1--1--1--|--------------------------|

  PM       PM PM    PM       PM PM    PM PM PM
  E  E  E  E  E  E  E  E     E  E  E  E  E  E  E  E
--------------------------|--------------------------|
--------------------------|--------------------------|
--------5--------5-----5--|--------5-----------4--0--|
--------5--------5-----5--|--------5-----------5--0--|
--3--3-----3--3-----3-----|-----------------------0--|
--------------------------|--3--3-----3--3--3--------|

  E  E  E  E  E  E  E  E       Q     E   E   Q    Q
--------------------------|----------------------------|
--------------------------|----------------------------|
--7--7--7--7--7--7--7--7--|--/16----14--14--14---------|
--x--x--x--x--x--x--x--x--|----x-----x---x---x---------|
--5--5--5--5--5--5--5--5--|--/14----12--12--12----0----|
--------------------------|-----------------------0----|


GUITAR1

   PM PM PM PM PM PM PM PM    PM PM PM PM PM PM PM PM
  E  E  E  E  E  E  E  E     E  E  E  E  E  E  E  E
--------------------------|--------------------------|
--------------------------|--------------------------|
--------------------------|--------------------------|
--------------------------|--------------------------|
--5--5--5--5--5--5--5--5--|--5--5--5--5--5--5--5--5--|
--3--3--3--3--3--3--3--0--|--2--2--2--2--2--2--2--0--|

  PM PM PM PM PM PM PM PM    PM PM    PM PM    PM
  E  E  E  E  E  E  E  E     E  E  E  E  E  E  E  E
--------------------------|--------------------------|
--------------------------|--------------------------|
--------------------------|--------5--------5-----5--|
--------------------------|--5--5--5--5--5--5--5--5--|
--5--5--5--5--5--5--5--5--|--3--3-----3--3-----3-----|
--1--1--1--1--1--1--1--1--|--------------------------|

  PM PM PM PM PM PM PM PM    PM PM PM PM PM PM PM PM
  E  E  E  E  E  E  E  E     E  E  E  E  E  E  E  E
--------------------------|--------------------------|
--------------------------|--------------------------|
--------------------------|--------------------------|
--5--5--5--5--5--5--5--5--|--------------------------|
--3--3--3--3--3--3--3--3--|--5--5--5--5--5--5--5--5--|
--------------------------|--3--3--3--3--3--3--3--3--|

  PM PM PM PM PM PM PM PM    PM PM    PM PM    PM
  E  E  E  E  E  E  E  E     E  E  E  E  E  E  E  E
--------------------------|--------------------------|
--------------------------|--------------------------|
--------------------------|--------5--------5-----5--|
--7--7--7--7--7--7--7--7--|--5--5--5--5--5--5--5--5--|
--5--5--5--5--5--5--5--5--|--3--3-----3--3-----3-----|
--------------------------|--------------------------|

  PM PM    PM PM    PM       PM PM    PM PM    PM
  E  E  E  E  E  E  E  E     E  E  E  E  E  E  E  E
--------------------------|--------------------------|
--------------------------|--------------------------|
--------------------------|--------------------------|
--------5--------5-----5--|--------5--------5-----5--|
--------5--------5-----5--|--------5--------5-----5--|
--3--3-----3--3-----3-----|--2--2-----2--2-----2-----|

  PM PM    PM PM    PM       PM PM    PM PM    PM
  E  E  E  E  E  E  E  E     E  E  E  E  E  E  E  E
--------------------------|--------------------------|
--------------------------|--------------------------|
--------------------------|--------5--------5-----5--|
--------5--------5-----5--|--------x--------x-----x--|
--------5--------5-----5--|--3--3--3--3--3--3--3--3--|
--1--1-----1--1-----1-----|--------------------------|

  PM PM    PM PM    PM       PM PM    PM PM PM
  E  E  E  E  E  E  E  E     E  E  E  E  E  E  E  E
--------------------------|--------------------------|
--------------------------|--------------------------|
--------5--------5-----5--|--------5-----------4--0--|
--------5--------5-----5--|--------5-----------5--0--|
--3--3-----3--3-----3-----|-----------------------0--|
--------------------------|--3--3-----3--3--3--------|

  PM PM PM PM PM PM PM PM    PM PM PM PM PM PM PM PM
  E  E  E  E  E  E  E  E     E  E  E  E  E  E  E  E
--------------------------|--------------------------|
--------------------------|--------------------------|
--------------------------|--------------------------|
--7--7--7--7--7--7--7--7--|--7--7--7--7--7--7--7--7--|
--5--5--5--5--5--5--5--5--|--5--5--5--5--5--5--5--5--|
--------------------------|--------------------------|


CHORUS

GUITAR 2

   E   E   E   E   E   E   E   E      E   E   E   E   E   E    E   E
----------------------------------|-----------------------------------|
----------------------------------|-----------------------------------|
--12--12--12--12--12--12--12--12--|--16--16--16--16--11--11--/12--12--|
---x---x---x---x---x---x---x---x--|---x---x---x---x---x---x----x---x--|
--10--10--10--10--10--10--10--10--|--14--14--14--14---9---9--/10--10--|
----------------------------------|-----------------------------------|

  E  E  E  E  E  E   E  E      E   E   E   E   E    E   E   E
---------------------------|-----------------------------------|
---------------------------|-----------------------------------|
--9--9--9--9--9--9---9--9--|--12--12--12--12--12--/14--14--14--|
--x--x--x--x--x--x---x--x--|---x---x---x---x---x----x---x---x--|
--7--7--7--7--7--7---7--7--|--10--10--10--10--10--/12--12--12--|
---------------------------|-----------------------------------|

   E   E   E   E   E   E   E   E      E   E   E   E   E   E   E   E
----------------------------------|----------------------------------|
----------------------------------|----------------------------------|
--12--12--12--12--12--12--12--12--|--12--12--12--12--12--12--12--12--|
---x---x---x---x---x---x---x---x--|---x---x---x---x---x---x---x---x--|
--10--10--10--10--10--10--10--10--|--10--10--10--10--10--10--10--10--|
----------------------------------|----------------------------------|

   E   E   E   E   E    E    E   E      E   E   E   E   E   E   E   E
------------------------------------|----------------------------------|
------------------------------------|----------------------------------|
--16--16--16--16--16--/17--\16--14--|--14--14--14--14--14--14--14--14--|
---x---x---x---x---x----x----x---x--|---x---x---x---x---x---x---x---x--|
--14--14--14--14--14--/15--\14--12--|--12--12--12--12--12--12--12--12--|
------------------------------------|----------------------------------|

   E   E   E   E   E   E   E   E      E   E   E   E   E   E    E   E
----------------------------------|-----------------------------------|
----------------------------------|-----------------------------------|
--12--12--12--12--12--12--12--12--|--16--16--16--16--11--11--/12--12--|
---x---x---x---x---x---x---x---x--|---x---x---x---x---x---x----x---x--|
--10--10--10--10--10--10--10--10--|--14--14--14--14---9---9--/10--10--|
----------------------------------|-----------------------------------|

  E  E  E  E  E  E  E  E      E   E   E   E    Q     E   E
--------------------------|---------------------------------|
--------------------------|---------------------------------|
--9--9--9--9--9--9--9--9--|--12--12--12--12--/14----14--14--|
--x--x--x--x--x--x--x--x--|---x---x---x---x----x-----x---x--|
--7--7--7--7--7--7--7--7--|--10--10--10--10--/12----12--12--|
--------------------------|---------------------------------|

   E   E   E   E   E   E   E    E      E   E   E  E  E  E  E  E
-----------------------------------|-----------------------------|
-----------------------------------|-----------------------------|
--12--12--12--12--12--12--12--\11--|--11--11--11--9--9--9--9--9--|
---x---x---x---x---x---x---x----x--|---x---x---x--x--x--x--x--x--|
--10--10--10--10--10--10--10---\9--|---9---9---9--7--7--7--7--7--|
-----------------------------------|-----------------------------|

   E   E   E   E   E    E    E   E      E   E   E   E   E   E  Q
------------------------------------|-------------------------------|
------------------------------------|-------------------------------|
--16--16--16--16--16--/17--\16--14--|--14--14--14--14--14--14-------|
---x---x---x---x---x----x----x---x--|---x---x---x---x---x---x--0----|
--14--14--14--14--14--/15--\14--12--|--12--12--12--12--12--12--0----|
------------------------------------|--------------------------0----|


GUITAR 1

  E  E  E  E  E  E  E  E     E  E  E  E  E  E  E  E
--------------------------|--------------------------|
--------------------------|--------------------------|
--------------------------|--------------------------|
--------------------------|--------------------------|
--5--5--5--5--5--5--5--5--|--5--5--5--5--5--5--5--5--|
--3--3--3--3--3--3--3--3--|--2--2--2--2--2--2--2--2--|

  E  E  E  E  E  E  E  E     E  E  E  E  E  E  E  E
--------------------------|--------------------------|
--------------------------|--------------------------|
--------------------------|--------------------------|
--------------------------|--7--7--7--7--7--7--7--7--|
--2--2--2--2--2--2--2--2--|--5--5--5--5--5--5--5--5--|
--0--0--0--0--0--0--0--0--|--------------------------|

  E  E  E  E  E  E  E  E     E  E  E  E  E  E  E  E
--------------------------|--------------------------|
--------------------------|--------------------------|
--------------------------|--------------------------|
--5--5--5--5--5--5--5--5--|--5--5--5--5--5--5--5--5--|
--3--3--3--3--3--3--3--3--|--3--3--3--3--3--3--3--3--|
--------------------------|--------------------------|

  E  E  E  E  E  E  E  E     E  E  E  E  E  E  E  E
--------------------------|--------------------------|
--------------------------|--------------------------|
--------------------------|--------------------------|
--7--7--7--7--7--7--7--7--|--7--7--7--7--7--7--7--7--|
--5--5--5--5--5--5--5--5--|--5--5--5--5--5--5--5--5--|
--------------------------|--------------------------|

  E  E  E  E  E  E  E  E     E  E  E  E  E  E  E  E
--------------------------|--------------------------|
--------------------------|--------------------------|
--------------------------|--------------------------|
--------------------------|--------------------------|
--5--5--5--5--5--5--5--5--|--5--5--5--5--5--5--5--5--|
--3--3--3--3--3--3--3--3--|--2--2--2--2--2--2--2--2--|

  E  E  E  E  E  E  E  E     E  E  E  E  E  E  E  E
--------------------------|--------------------------|
--------------------------|--------------------------|
--------------------------|--------------------------|
--------------------------|--7--7--7--7--7--7--7--7--|
--2--2--2--2--2--2--2--2--|--5--5--5--5--5--5--5--5--|
--0--0--0--0--0--0--0--0--|--------------------------|

  E  E  E  E  E  E  E  E     E  E  E  E  E  E  E  E
--------------------------|--------------------------|
--------------------------|--------------------------|
--------------------------|--------------------------|
--5--5--5--5--5--5--5--5--|--5--5--5--5--5--5--5--5--|
--3--3--3--3--3--3--3--3--|--3--3--3--3--3--3--3--3--|
--------------------------|--------------------------|

  E  E  E  E  E  E  E  E     E  E  E  E  E  E  E  E
--------------------------|--------------------------|
--------------------------|--------------------------|
--------------------------|--------------------------|
--7--7--7--7--7--7--7--7--|--7--7--7--7--7--7--7--7--|
--5--5--5--5--5--5--5--5--|--5--5--5--5--5--5--5--5--|
--------------------------|--------------------------|


REPEAT VERSE THEN>>

GUITAR 2
   E   E   E   E   E   E   E   E      E   E   E   E   E   E    E   E
----------------------------------|-----------------------------------|
----------------------------------|-----------------------------------|
--12--12--12--12--12--12--12--12--|--16--16--16--16--11--11--/12--12--|
---x---x---x---x---x---x---x---x--|---x---x---x---x---x---x----x---x--|
--10--10--10--10--10--10--10--10--|--14--14--14--14---9---9--/10--10--|
----------------------------------|-----------------------------------|

  E  E  E  E  E  E   E  E      E   E   E   E    Q     E   E
---------------------------|---------------------------------|
---------------------------|---------------------------------|
--9--9--9--9--9--9---9--9--|--12--12--12--12--/14----14--14--|
--x--x--x--x--x--x---x--x--|---x---x---x---x----x-----x---x--|
--7--7--7--7--7--7---7--7--|--10--10--10--10--/12----12--12--|
---------------------------|---------------------------------|

   E   E   E   E   E   E   E   E      E   E   E   E   E   E   E   E
----------------------------------|----------------------------------|
----------------------------------|----------------------------------|
--12--12--12--12--12--12--12--12--|--12--12--12--12--12--12--12--12--|
---x---x---x---x---x---x---x---x--|---x---x---x---x---x---x---x---x--|
--10--10--10--10--10--10--10--10--|--10--10--10--10--10--10--10--10--|
----------------------------------|----------------------------------|

   E   E   E   E   E    E    E   E      E   E   E   E   E   E   E   E
------------------------------------|----------------------------------|
------------------------------------|----------------------------------|
--16--16--16--16--16--/17--\16--14--|--14--14--14--14--14--14--14--14--|
---x---x---x---x---x----x----x---x--|---x---x---x---x---x---x---x---x--|
--14--14--14--14--14--/15--\14--12--|--12--12--12--12--12--12--12--12--|
------------------------------------|----------------------------------|

   E   E   E   E   E   E   E   E      E   E   E   E   E   E    E   E
----------------------------------|-----------------------------------|
----------------------------------|-----------------------------------|
--12--12--12--12--12--12--12--12--|--16--16--16--16--11--11--/12--12--|
---x---x---x---x---x---x---x---x--|---x---x---x---x---x---x----x---x--|
--10--10--10--10--10--10--10--10--|--14--14--14--14---9---9--/10--10--|
----------------------------------|-----------------------------------|

  E  E  E  E  E  E   E  E      E   E   E   E    Q     E   E
---------------------------|---------------------------------|
---------------------------|---------------------------------|
--9--9--9--9--9--9---9--9--|--12--12--12--12--/14----14--14--|
--x--x--x--x--x--x---x--x--|---x---x---x---x----x-----x---x--|
--7--7--7--7--7--7---7--7--|--10--10--10--10--/12----12--12--|
---------------------------|---------------------------------|

   E   E   E   E   E   E   E   E      E   E   E  E  E  E  E  E
----------------------------------|-----------------------------|
----------------------------------|-----------------------------|
--12--12--12--12--12--12--12--11--|--11--11--11--9--9--9--9--9--|
---x---x---x---x---x---x---x---x--|---x---x---x--x--x--x--x--x--|
--10--10--10--10--10--10--10---9--|---9---9--11--7--7--7--7--7--|
----------------------------------|-----------------------------|

   E   E   E   E   E    E    Q        H         H
----------------------------------|----------------------|
----------------------------------|----------------------|
--16--16--16--16--16--/17--\16----|--14--------12--------|
---x---x---x---x---x----x----x----|---x---------x--------|
--14--14--14--14--14--/15--\14----|--12--------10--------|
----------------------------------|----------------------|


GUITAR 1

  E  E  E  E  E  E  E  E     E  E  E  E  E  E  E  E
--------------------------|--------------------------|
--------------------------|--------------------------|
--------------------------|--------------------------|
--------------------------|--------------------------|
--5--5--5--5--5--5--5--5--|--5--5--5--5--5--5--5--5--|
--3--3--3--3--3--3--3--3--|--2--2--2--2--2--2--2--2--|

  E  E  E  E  E  E  E  E     E  E  E  E  E  E  E  E
--------------------------|--------------------------|
--------------------------|--------------------------|
--------------------------|--------------------------|
--------------------------|--7--7--7--7--7--7--7--7--|
--2--2--2--2--2--2--2--2--|--5--5--5--5--5--5--5--5--|
--0--0--0--0--0--0--0--0--|--------------------------|

  E  E  E  E  E  E  E  E     E  E  E  E  E  E  E  E
--------------------------|--------------------------|
--------------------------|--------------------------|
--------------------------|--------------------------|
--5--5--5--5--5--5--5--5--|--5--5--5--5--5--5--5--5--|
--3--3--3--3--3--3--3--3--|--3--3--3--3--3--3--3--3--|
--------------------------|--------------------------|

  E  E  E  E  E  E  E  E     E  E  E  E  E  E  E  E
--------------------------|--------------------------|
--------------------------|--------------------------|
--------------------------|--------------------------|
--7--7--7--7--7--7--7--7--|--7--7--7--7--7--7--7--7--|
--5--5--5--5--5--5--5--5--|--5--5--5--5--5--5--5--5--|
--------------------------|--------------------------|

  E  E  E  E  E  E  E  E     E  E  E  E  E  E  E  E
--------------------------|--------------------------|
--------------------------|--------------------------|
--------------------------|--------------------------|
--------------------------|--------------------------|
--5--5--5--5--5--5--5--5--|--5--5--5--5--5--5--5--5--|
--3--3--3--3--3--3--3--3--|--2--2--2--2--2--2--2--2--|

  E  E  E  E  E  E  E  E     E  E  E  E  E  E  E  E
--------------------------|--------------------------|
--------------------------|--------------------------|
--------------------------|--------------------------|
--------------------------|--7--7--7--7--7--7--7--7--|
--2--2--2--2--2--2--2--2--|--5--5--5--5--5--5--5--5--|
--0--0--0--0--0--0--0--0--|--------------------------|

  E  E  E  E  E  E  E  E     E  E  E  E  E  E  E  E
--------------------------|--------------------------|
--------------------------|--------------------------|
--------------------------|--------------------------|
--5--5--5--5--5--5--5--5--|--5--5--5--5--5--5--5--5--|
--3--3--3--3--3--3--3--3--|--3--3--3--3--3--3--3--3--|
--------------------------|--------------------------|

  E  E  E  E  E  E  E  E    H         H
--------------------------|----------------------|
--------------------------|----------------------|
--------------------------|----------------------|
--7--7--7--7--7--7--7--7--|----------------------|
--5--5--5--5--5--5--5--5--|----------------------|
--------------------------|--5~--------3~--------|


BRIDGE

GUITAR 2

   Q     E   E  E   E   Q        Q     E   E  E   E   Q
-----------------------------|-----------------------------|
-----------------------------|-----------------------------|
--11----11--11-----11--11----|--11----11--11-----11--11----|
---x-----x---x------x---x----|---x-----x---x------x---x----|
---9-----9---9------9---9----|---9-----9---9------9---9----|
-----------------------------|-----------------------------|

  Q    E  E   E   E   E   E      E   E   Q     E   E   Q
-----------------------------|------------------------------|
-----------------------------|------------------------------|
--9----9--9--14--14--14--14--|--12--12--12----16--16--16----|
--x----x--x---x---x---x---x--|---x---x---x-----x---x---x----|
--7----7--7--12--12--12--12--|--10--10--10----14--14--14----|
-----------------------------|------------------------------|

   Q     E   E  E   E   Q        Q     E   E  E   E   Q
-----------------------------|-----------------------------|
-----------------------------|-----------------------------|
--11----11--11-----11--11----|--11----11--11-----11--11----|
---x-----x---x------x---x----|---x-----x---x------x---x----|
---9-----9---9------9---9----|---9-----9---9------9---9----|
-----------------------------|-----------------------------|

  E  E  Q     E   E   E   E      E   E   Q     E   E   Q
-----------------------------|------------------------------|
-----------------------------|------------------------------|
--9--9--9----14--14--14--14--|--12--12--12----16--16--16----|
--x--x--x-----x---x---x---x--|---x---x---x-----x---x---x----|
--7--7--7----12--12--12--12--|--10--10--10----14--14--14----|
-----------------------------|------------------------------|

   E   E  E   E  E   E  E   E     E   E  E   E   E   E  Q
-------------------------------|-----------------------------|
-------------------------------|-----------------------------|
--17--17-----16-----14-----14--|-----12-----12--12--12--0----|
---x---x------x------x------x--|------x------x---x---x--0----|
--15--15-----14-----12-----12--|-----10-----10--10--10--0----|
-------------------------------|-----------------------------|

  H         H            H         Q      Q
---------------------|-------------------------|
---------------------|-------------------------|
--8--------10--------|--12--------15-----14----|
--x---------x--------|---x---------x------x----|
--6---------8--------|--10--------13-----12----|
---------------------|-------------------------|


GUITAR1

  Q    E  E  E  E  Q       Q    E  E  E  E  Q       Q    E  E  E  E  E  E
------------------------|------------------------|-------------------------|
------------------------|------------------------|-------------------------|
------------------------|------------------------|-------------------------|
--4----4--4-----4--4----|--4----4--4-----4--4----|-------------------------|
--2----2--2-----2--2----|--2----2--2-----2--2----|--2----2--2--2--2--2--2--|
------------------------|------------------------|--0----0--0--0--0--0--0--|

  E  E  Q    E  E  Q       Q    E  E  E  E  Q       Q    E  E  E  E  Q
------------------------|------------------------|------------------------|
------------------------|------------------------|------------------------|
------------------------|------------------------|------------------------|
------------------------|--4----4--4-----4--4----|--4----4--4-----4--4----|
--2--2--2----2--2--2----|--2----2--2-----2--2----|--2----2--2-----2--2----|
--0--0--0----0--0--0----|------------------------|------------------------|

  E  E  Q    E  E  E  E     E  E  Q    E  E  Q       E  E  E  E  E  E  E  E
-------------------------|------------------------|-------------------------|
-------------------------|------------------------|-------------------------|
-------------------------|------------------------|-------------------------|
-------------------------|------------------------|--5--5-----5-----5-------|
--2--2--2----2--2--2--2--|--2--2--2----2--2--2----|--3--3-----3-----3-----3-|
--0--0--0----0--0--0--0--|--0--0--0----0--0--0----|-------------------------|

  E  E  E  E  E  E  E  E     H         H             H          H
--------------------------|----------------------|------------------------|
--------------------------|----------------------|------------------------|
-----------------------0--|----------------------|------------------------|
-----5-----5--5--5--5--0--|----------------------|------------------------|
-----3-----3--3--3--3--0--|--6~--------8~--------|--10~--------12~--------|
--------------------------|----------------------|------------------------|


BREAKDOWN AND SOLO

TEMPO CHANGE TO 93

GUITAR 2
  H        Q    Q       H        H           H        H
---------------------|--------------------|--------------------|
---------------------|--------------------|--------------------|
--5--------7----4----|--------------------|-----------4--------|
--x--------x----x----|--5--------4--------|--2--------x--------|
--3--------5----2----|--x--------x--------|--x--------2--------|
---------------------|--3--------2--------|--0-----------------|

  H        H           H        H           H        H
--------------------|--------------------|--------------------|
--------------------|--------------------|--------------------|
--5-----------------|--5--------7--------|--------------------|
--x--------5--------|--x--------x--------|--7--------6--------|
--3--------x--------|--3--------5--------|--x--------x--------|
-----------3--------|--------------------|--5--------4--------|

                                             ^    PM PM PM PM PM
   H        H           H        H           Q    E  E  E  E  E  E
---------------------|--------------------|-------------------------|
---------------------|--------------------|-------------------------|
--11--------9--------|--7-----------------|-------------------------|
---x--------x--------|--x--------7--------|--9----9--9--9--9--9--9--|
---9--------7--------|--5--------x--------|--7----7--7--7--7--7--7--|
---------------------|-----------5--------|--0----0--0--0--0--0--0--|

  ^  PM PM PM PM PM PM       ^  PM PM ^  PM PM
  E  E  E  E  E  E  E  E     E  E  E  E  E  E  E  E     H         H
--------------------------|--------------------------|---------------------|
--------------------------|--------------------------|---------------------|
--------------------------|--------------------------|---------------------|
--9--9--9--9--9--9--9--9--|--9--9--9--9--9--9--9--9--|--9\-----------------|
--7--7--7--7--7--7--7--7--|--7--7--7--7--7--7--7--7--|--7\-----------------|
--0--0--0--0--0--0--0--0--|--0--0--0--0--0--0--0--0--|--0\-----------------|

GUITAR 1

  H         H            H         H            H         H
----------------------|----------------------|----------------------|
----------------------|----------------------|----------------------|
----------------------|----------------------|----------------------|
----------------------|----------------------|----------------------|
----------------------|------------5~--------|--3~------------------|
--3~--------2~--------|--0~------------------|------------3~--------|

  H         Q     Q        H         H            H         H
------------------------|----------------------|----------------------|
------------------------|----------------------|----------------------|
------------------------|----------------------|----------------------|
------------------------|----------------------|----------------------|
--3~--------5~----2~----|--2~--------5~--------|--7~--------5~--------|
------------------------|----------------------|----------------------|

  H         H
----------------------|
----------------------|
----------------------|
----------------------|
--7~--------5~--------|
----------------------|

   |--6--|  |--6--|  |--6--|  |--6--|  |--6--|  |--6--|  |--3--|
   S  S  S  S  S  S  S  S  S  S  S  S  S  S  S  S  S  S  S  S  S   E
--------------------------------------------------------12-14-15S-17~--|
-----------------------------12-13-15--------L-12-13-15----------------|
--------------------11-12-14----------11-12-14-------------------------|
-----------10-12-14----------------------------------------------------|
--10-12-14-------------------------------------------------------------|
-----------------------------------------------------------------------|

            |--3-|                   |--3-|
   Q.       E    S  S  S  E   S   S  E    S
--19b------19p--17-19-19-17--19b--L-19p--17-|
--------------------------------------------|
--------------------------------------------|
--------------------------------------------|
--------------------------------------------|
--------------------------------------------|

   S  S  E    E    E   S   E   S   Q
--19-17-----------17--17S-16--16b--L~----|
--------19~---L~-------------------------|
-----------------------------------------|
-----------------------------------------|
-----------------------------------------|
-----------------------------------------|

   E    S  T   T  E.    T   T  T   T  S   T   T  S.   T  E     T   T
---------------------------------------------------------------------|
----------17p-14-17b---17p-14-17p-14-----17p-14----------------------|
--16br--L----------------------------16b--------16br-14-16br--16p-14-|
---------------------------------------------------------------------|
---------------------------------------------------------------------|
---------------------------------------------------------------------|

   Q     E   E   H            H         E     Q       S   S
--------------------------|------------19br--19br----19p-17-|
--------------------------|---------------------------------|
--16----------------------|---------------------------------|
--------14--14---L--------|---L-----------------------------|
--------------------------|---------------------------------|
--------------------------|---------------------------------|

   Q     E   E    H             H        H
--19------------------------|---------------------|
--------17--17~---L~--------|---L-----------------|
----------------------------|---------------------|
---L------------------------|---L-----------------|
----------------------------|---------------------|
----------------------------|---------------------|


CHORUS 2 (note:: this chorus is very different from the previous two chorus))

GUITAR 2

   E   E   E   E   E   E   E   E      E   E   E   E   E  E  E  E
----------------------------------|-------------------------------|
----------------------------------|-------------------------------|
--14--14--14--14--14--14--14--14--|--13--13--13--13---9--9--9--9--|
---x---x---x---x---x---x---x---x--|---x---x---x---x---x--x--x--x--|
--12--12--12--12--12--12--12--12--|--11--11--11--11---7--7--7--7--|
----------------------------------|-------------------------------|

   E   E   E   E   E   E   E   E      E   E   E   E   E   E   E   E
----------------------------------|----------------------------------|
----------------------------------|----------------------------------|
--18--18--18--18--18--18--18--18--|--16--16--16--16--16--18--18--18--|
---x---x---x---x---x---x---x---x--|---x---x---x---x---x---x---x---x--|
--16--16--16--16--16--16--16--16--|--14--14--14--14--14--16--16--16--|
----------------------------------|----------------------------------|

   E   E   E   E   E   E   E   E      E   E   E   E   E   E   E   E
----------------------------------|----------------------------------|
----------------------------------|----------------------------------|
--14--14--14--14--14--14--14--14--|--14--14--14--14--14--14--14--14--|
---x---x---x---x---x---x---x---x--|---x---x---x---x---x---x---x---x--|
--12--12--12--12--12--12--12--12--|--12--12--12--12--12--12--12--12--|
----------------------------------|----------------------------------|

   E   E   E   E   E   E   E   E      E   E   E   E   E   E   E   E
----------------------------------|----------------------------------|
----------------------------------|----------------------------------|
--13--13--13--13--13--13--13--13--|--14--14--14--16--16--16--16--16--|
---x---x---x---x---x---x---x---x--|---x---x---x---x---x---x---x---x--|
--11--11--11--11--11--11--11--11--|--12--12--12--14--14--14--14--14--|
----------------------------------|----------------------------------|

   E   E   E   E   E   E   E   E      E   E   E   E   E   E   E   E
----------------------------------|----------------------------------|
----------------------------------|----------------------------------|
--14--14--14--14--14--14--14--14--|--16--16--16--16--16--16--16--16--|
---x---x---x---x---x---x---x---x--|---x---x---x---x---x---x---x---x--|
--12--12--12--12--12--12--12--12--|--14--14--14--14--14--14--14--14--|
----------------------------------|----------------------------------|

   E   E   E   E   E   E   E   E      E   E   E   E   E   E   E   E
----------------------------------|----------------------------------|
----------------------------------|----------------------------------|
--18--18--18--18--18--18--18--18--|--16--16--16--16--18--18--18--18--|
---x---x---x---x---x---x---x---x--|---x---x---x---x---x---x---x---x--|
--16--16--16--16--16--16--16--16--|--14--14--14--14--16--16--16--16--|
----------------------------------|----------------------------------|

   E   E   E   E   E   E   E   E      E   E   E   E   E   E   E   E
----------------------------------|----------------------------------|
----------------------------------|----------------------------------|
--14--14--14--14--14--14--14--14--|--14--14--14--14--14--14--16--16--|
---x---x---x---x---x---x---x---x--|---x---x---x---x---x---x---x---x--|
--12--12--12--12--12--12--12--12--|--12--12--12--12--12--12--14--14--|
----------------------------------|----------------------------------|

   Q      Q     H            H         Q     Q
-------------------------|------------------------|
-------------------------|------------------------|
--19-----21----18--------|--19--------18----19----|
----x-----x-----x--------|---x---------x-----x----|
--17-----19----16--------|--17--------16----17----|
-------------------------|------------------------|


GUITAR 1

  E  E  E  E  E  E  E  E     E  E  E  E  E  E  E  E
--------------------------|--------------------------|
--------------------------|--------------------------|
--------------------------|--------------------------|
--------------------------|--------------------------|
--7--7--7--7--7--7--7--7--|--7--7--7--7--7--7--7--7--|
--5--5--5--5--5--5--5--0--|--4--4--4--4--4--4--4--4--|

  E  E  E  E  E  E  E  E     E  E  E  E  E  E  E  E
--------------------------|--------------------------|
--------------------------|--------------------------|
--------------------------|--------------------------|
-----------------------0--|--9--9--9--9--9--9--------|
--4--4--4--4--4--4--4--0--|--7--7--7--7--7--7--0--0--|
--2--2--2--2--2--2--2-----|--------------------0--0--|

  E  E  E  E  E  E  E  E     E  E  E  E  E  E  E  E
--------------------------|--------------------------|
--------------------------|--------------------------|
--------------------------|--------------------------|
--7--7--7--7--7--7--7--7--|--7--7--7--7--7--7--------|
--5--5--5--5--5--5--5--5--|--5--5--5--5--5--5--------|
--------------------------|--------------------0--0--|

  E  E  E  E  E  E  E  E     E  E  E  E  E  E  E  E
--------------------------|--------------------------|
--------------------------|--------------------------|
--------------------------|--------------------------|
--9--9--9--9--9--9--9--9--|--9--9--9--9--9--9--0--0--|
--7--7--7--7--7--7--7--7--|--7--7--7--7--7--7--0--0--|
--------------------------|--------------------0--0--|

  E  E  E  E  E  E  E  E     E  E  E  E  E  E  E  E
--------------------------|--------------------------|
--------------------------|--------------------------|
--------------------------|--------------------------|
--------------------------|--------------------------|
--7--7--7--7--7--7--7--7--|--7--7--7--7--7--7--7--7--|
--5--5--5--5--5--5--5--0--|--4--4--4--4--4--4--4--4--|

  E  E  E  E  E  E  E  E     E  E  E  E  E  E  E  E
--------------------------|--------------------------|
--------------------------|--------------------------|
--------------------------|--------------------------|
--------------------------|--9--9--9--9--9--9--------|
--4--4--4--4--4--4--4--0--|--7--7--7--7--7--7--0--0--|
--2--2--2--2--2--2--2--0--|--------------------0--0--|

  E  E  E  E  E  E  E  E     E  E  E  E  E  E  E  E
--------------------------|--------------------------|
--------------------------|--------------------------|
--------------------------|--------------------------|
--7--7--7--7--7--7--7--7--|--7--7--7--7--7--7--0--0--|
--5--5--5--5--5--5--5--5--|--5--5--5--5--5--5--0--0--|
--------------------------|--------------------0--0--|

       |--3--|       |--3--|          |--3--|
  Q    E  E  E  Q    E  E  E     Q    E  E  E  Q    Q
------------------------------|--------------------------|
------------------------------|--------------------------|
------------------------------|--------------------------|
--9----9--9--9--9----9--9--9--|--9----9--9--9------------|
--7----7--7--7--7----7--7--7--|--7----7--7--7--0----0----|
------------------------------|--------------------------|


OUTRO

GUITAR 2

   Q.      E   E   S   S  Q        E   Q     E   H
-------------------------------|--------------------------|
-------------------------------|--------------------------|
--21------19---L--18s-16-18----|--19--18----16--14--------|
---x-------x---L---xs--x--x----|---x---x-----x---x--------|
--19------17---L--16s-14-16----|--17--16----14--12--------|
-------------------------------|--------------------------|

   E   Q     E   H            E   Q     E   Q     Q
--------------------------|----------------------------|
--------------------------|----------------------------|
--19--18----16--14--------|--16--13----13--14----16----|
---x---x-----x---x--------|---x---x-----x---x-----x----|
--17--16----14--12--------|--14--11----11--12----14----|
--------------------------|----------------------------|

   Q.      E   E   E   E   E      E   Q     E   H
------------------------------|--------------------------|
------------------------------|--------------------------|
--21------19---L--18--18--14--|--19--18----16--14--------|
---x-------x-------x---x---x--|---x---x-----x---x--------|
--19------17---L--16--16--12--|--17--16----14--12--------|
------------------------------|--------------------------|

   E   Q     E   H            Q     Q      Q     Q        W
--------------------------|---------------------------|--------------------|
--------------------------|---------------------------|--------------------|
--19--18----16--14--------|--16----18S----13----13----|--14----------------|
---x---x-----x---x--------|---x-----xS-----x-----x----|---x----------------|
--17--16----14--12--------|--14----16S----11----11----|--12----------------|
--------------------------|---------------------------|--------------------|

GUITAR 1

  E  Q.     E  Q.        E  Q.     E  Q.        E  Q.     E  Q.
----------------------|----------------------|----------------------|
----------------------|----------------------|----------------------|
----------------------|----------------------|----------------------|
----------------------|----------------------|--7--7------7--7------|
--0--7------7--7------|--4--4------2--2------|--5--5------5--5------|
-----5------4--4------|--2--2------0--0------|----------------------|

  E  E  E  E  E  E  E  E     E  Q.     E  Q.        E  Q.     E  Q.
--------------------------|----------------------|----------------------|
--------------------------|----------------------|----------------------|
--------------------------|----------------------|----------------------|
--7-----------------------|----------------------|----------------------|
--5--2--2--2--2--2--2--2--|--2--7------7--7------|--4--4------2--2------|
-----0--0--0--0--0--0--0--|--0--5------4--4------|--2--2------0--0------|

  E  Q.     E  Q.        E  E  E  E  E  E  E  E     E  H        Q.
----------------------|--------------------------|---------------------|
----------------------|--------------------------|---------------------|
----------------------|--------------------------|---------------------|
--7--7------7--7------|--7-----------------------|---------------------|
--5--5------5--5------|--5--2--2--2--2--2--2--2--|--2--7--------L------|
----------------------|-----0--0--0--0--0--0--0--|--0--5--------L------|


Thats all, hope you enjoy, plz rate, leave a comment or correction.
i will soon upload a guitar pro version of this.


Duration Legend
---------------
W - whole
H - half
Q - quarter
E - 8th
S - 16th
T - 32nd
X - 64th
. - note dotted
|-n-|  - n-tuplets


Tablature Legend
----------------
L - tied note
x - dead note
g - grace note
(n) - ghost note
> - accentuded note
NH - natural harmonic
AH - artificial harmonic
TH - tapped harmonic
SH - semi harmonic
PH - pitch harmonic
h - hammer on
p - pull off
b - bend
br - bendRelease
pb - preBend
pbr - preBendRelease
brb - bendReleaseBend
\n/ - tremolo bar dip
\n - tremolo bar dive
-/n - tremolo bar Release up
/n\ - tremolo bar inverted dip
/n - tremolo bar return
-\n - tremolo bar Release down
S - shift slide
s - legato slide
/ -  slide into from below or out of upwards
\ -  slide into from above or out of downwards
~ - vibrato
W - wide vibrato
tr - trill
TP - tremolo picking
T - tapping
S - slap
P - pop
< - fade in
^ - brush up
v - brush down
comments
print report bad tab
15 comments total. Showing first comments.
0 reply
vmanoman wrote on January 11 2007, 06:18 am

dude, this might just be my imagination but it looks exactly like the one in that guitar magezine. why???

0 reply
gdrocks2230 wrote on January 11 2007, 02:04 pm

guitar world?

0 reply
To The End wrote on January 11 2007, 04:51 pm

no lol, it looks quite different, like i said this is only tabed out for 2 guitars and the major changes occur in the Intro, Breackdown and outro.

I want to post or [tab]
guest
You may want to rate the tab now too:
select rating
Please do not post tabs as comments. Select "correction" instead!