Oops, an error
Loading. Please wait.

Every Lie Tab

ver3
ver3

Whole song

Interactive

More versions @911Tabs.com
1,433 views 3 this week
no commentswrite comment
1 2 3 4 5
excellent!
x 1
Autoscroll
+/-
esc
set tempo
stop
Difficulty
Tuning
intermediate
D A D G B E
Hey! There's an official Ultimate Guitar app which is ideal
for learning songs when you're away from computer. Get the app
WARNING: You are trying to view
                                    content from Ultimate-Guitar.com
                                    in an unauthorized application,
                                    which is prohibited.

                                    Please use an official Ultimate
                                    Guitar Tabs application for iPhone,
                                    iPad or Android to access legitimate
                                    chords, guitar, bass, and drum tabs
                                    from Ultimate-Guitar.com database.

                                    Type "ultimate guitar tabs" in Apple
                                    App Store's or Android Market's
                                    search to find the application.
Every Lie – My Darkest Days
Tuning – Drop D
Tabbed by wmatthewd

Hey everyone, this is my 1st tab. Let me know how I did. Tabbed all by ear and pretty 
sure its correct.

Intro
|-----------------|-----------------|-----------------|------------------|
|-----------------|-----------------|-----------------|------------------|
|-----2-----------|-----------------|-----------------|------------------| X6
|---0---0---------|-----5~----------|-----10----------|-----7~-----------|
|-----------------|-----------------|---8----8--------|------------------|
|-0---------------|-3---------------|-8---------------|-5----------------|

|-----------------|-----------------|-----------------|------------------|
|-----------------|-----------------|-----------------|------------------|
|-----------------|-----------------|-----------------|------------------|
|--3--------------|-----------------|-----------------|--5---------5-----|
|--3--------------|-----------------|-----------------|--5---------5-----|
|--3--------------|-----------------|-----------------|--5---------5-----|

Chorus
|-----------------|-----------------|-----------------|------------------|
|-----------------|-----------------|-----------------|------------------|
|-----------------|-----------------|-3---------3-----|------------------|
|--0--------0-----|--3-------3-3-3--|-3---------3-----|-5--------5-5-5---|
|--0--------0-----|--3-------3-3-3--|-1---------1-----|-5--------5-5-5---|
|--0--------0-----|--3-------3-3-3--|-----------------|-5--------5-5-5---|

|-----------------|-----------------|-----------------|------------------|
|-----------------|-----------------|-----------------|------------------|
|-----------------|-----------------|-3---------3-----|------------------|
|--0--------0-----|--3-------3-3-3--|-3---------3-----|-5--------5-5-5---|
|--0--------0-----|--3-------3-3-3--|-1---------1-----|-5--------5-5-5---|
|--0--------0-----|--3-------3-3-3--|-----------------|-5--------5-5-5---|

|-----------------|-----------------|-----------------|------------------|
|-----------------|-----------------|-----------------|------------------|
|-----------------|-----------------|-3---------3-----|------------------|
|--0--------0-----|--3-------3-3-3--|-3---------3-----|-5--------5-5-5---|
|--0--------0-----|--3-------3-3-3--|-1---------1-----|-5--------5-5-5---|
|--0--------0-----|--3-------3-3-3--|-----------------|-5--------5-5-5---|

|-----------------|-----------------|-----------------|------------------|
|-----------------|-----------------|-----------------|------------------|
|-3---3----3---3--|-3--3---3---3----|-5--5--5--5------|--5---------------|
|-3---3----3---3--|-3--3---3---3----|-5--5--3--5------|--5---------------|
|-1---1----1---1--|-1--1---1---1----|-3--3--3--3------|--3---------------|
|-----------------|-----------------|-----------------|------------------|

Repeat Intro



Chorus 2
|-----------------|-----------------|-----------------|------------------|
|-----------------|-----------------|-----------------|------------------|
|-----------------|-----------------|-3---------3-----|------------------|
|--0--------0-----|--3-------3-3-3--|-3---------3-----|-5--------5-5-5---|
|--0--------0-----|--3-------3-3-3--|-1---------1-----|-5--------5-5-5---|
|--0--------0-----|--3-------3-3-3--|-----------------|-5--------5-5-5---|

|-----------------|-----------------|-----------------|------------------|
|-----------------|-----------------|-----------------|------------------|
|-----------------|-----------------|-3---------3-----|------------------|
|--0--------0-----|--3-------3-3-3--|-3---------3-----|-5--------5-5-5---|
|--0--------0-----|--3-------3-3-3--|-1---------1-----|-5--------5-5-5---|
|--0--------0-----|--3-------3-3-3--|-----------------|-5--------5-5-5---|

|-----------------|-----------------|-----------------|------------------|
|-----------------|-----------------|-----------------|------------------|
|-----------------|-----------------|-3---------3-----|------------------|
|--0--------0-----|--3-------3-3-3--|-3---------3-----|-5--------5-5-5---|
|--0--------0-----|--3-------3-3-3--|-1---------1-----|-5--------5-5-5---|
|--0--------0-----|--3-------3-3-3--|-----------------|-5--------5-5-5---|

|-----------------|-----------------|-----------------|------------------|
|-----------------|-----------------|-----------------|------------------|
|-3---3----3---3--|-3--3---3---3----|-5--5--5--5------|--5--5---5---5----|
|-3---3----3---3--|-3--3---3---3----|-5--5--3--5------|--5--5---5---5----|
|-1---1----1---1--|-1--1---1---1----|-3--3--3--3------|--3--3---3---3----|
|-----------------|-----------------|-----------------|------------------|

Repeat Chorus 2

Bridge (soft)

|-----------------|-----------------|-----------------|------------------|
|-----------------|-----------------|-----------------|------------------|
|--3--3--3--3-----|-3---3---3---3---|-5---5---5---5---|-5---5---5---5----|
|--3--3--3--3-----|-3---3---3---3---|-5---5---5---5---|-5---5---5---5----|
|--1--1--1--1-----|-1---1---1---1---|-3---3---3---3---|-3---3---3---3----|
|-----------------|-----------------|-----------------|------------------|

|-----------------|-----------------|-----------------|------------------|
|-----------------|-----------------|-----------------|------------------|
|-----------------|-----------------|-----------------|------------------|
|-3---3---3---3---|-3---3---3---3---|-5---5---5---5---|-5---5---5---5----|
|-3---3---3---3---|-3---3---3---3---|-5---5---5---5---|-5---5---5---5----|
|-3---3---3---3---|-3---3---3---3---|-5---5---5---5---|-5---5---5---5----|

|-----------------|-----------------|-----------------|------------------|
|-----------------|-----------------|-----------------|------------------|
|--3--3--3--3-----|-3---3---3---3---|-5---------------|------------------|
|--3--3--3--3-----|-3---3---3---3---|-5---------------|------------------|
|--1--1--1--1-----|-1---1---1---1---|-3---------------|------------------|
|-----------------|-----------------|-----------------|------------------|

.
Middle Eighth (HEAVY)

|-----------------|-----------------|-----------------|------------------|
|-----------------|-----------------|-----------------|------------------|
|-----------------|----------5------|-----------------|----------3-3-3-3-|
|--0--------0-----|--0-------5------|--0-------0------|--0-------3-3-3-3-|
|--0--------0-----|--0-------3------|--0-------0------|--0-------1-1-1-1-|
|--0--------0-----|--0--------------|--0-------0------|--0---------------|

|-----------------|-----------------|-----------------|------------------|
|-----------------|-----------------|-----------------|------------------|
|-----------------|----------5------|-----------------|----------5-5-5-5-|
|--0--------0-----|--0-------5------|--0-------0------|--0-------5-5-5-5-|
|--0--------0-----|--0-------3------|--0-------0------|--0-------3-3-3-3-|
|--0--------0-----|--0--------------|--0-------0------|--0---------------|

Outro

|-----------------|-----------------|-----------------|------------------|
|-----------------|-----------------|-----------------|------------------|
|-----2-----------|-----------------|-----------------|------------------|
|---0---0---------|-----5~----------|-----10----------|-----7~-----------|
|-----------------|-----------------|---8----8--------|------------------|
|-0---------------|-3---------------|-8---------------|-5----------------|

|-----------------|-----------------|-----------------|------------------|
|-----------------|-----------------|-----------------|------------------|
|-----2-----------|-----------------|-----------------|------------------|
|---0---0---------|-----5-----------|-----10----------|-5---5------------|
|-----------------|-----------------|---8----8--------|-5---5------------|
|-0---------------|-3---------------|-8---------------|-5---5------------|

|-----------------|-----------------|-----------------|------------------|
|-----------------|-----------------|-----------------|------------------|
|-----------------|-----------------|-3---------3-----|------------------|
|--0--------0-----|--3-------3-3-3--|-3---------3-----|-5--------5-5-5---|
|--0--------0-----|--3-------3-3-3--|-1---------1-----|-5--------5-5-5---|
|--0--------0-----|--3-------3-3-3--|-----------------|-5--------5-5-5---|

|-----------------|-----------------|-----------------|------------------|
|-----------------|-----------------|-----------------|------------------|
|-3---3----3---3--|-3--3---3---3----|-5--5--5--5------|--5--5---5---5----|
|-3---3----3---3--|-3--3---3---3----|-5--5--3--5------|--5--5---5---5----|
|-1---1----1---1--|-1--1---1---1----|-3--3--3--3------|--3--3---3---3----|
|-----------------|-----------------|-----------------|------------------|

|-----------------|-----------------|-----------------|------------------|
|-----------------|-----------------|-----------------|------------------|
|-----------------|-----------------|-3---------3-----|------------------|
|--0--------0-----|--3-------3-3-3--|-3---------3-----|-5--------5-5-5---|
|--0--------0-----|--3-------3-3-3--|-1---------1-----|-5--------5-5-5---|
|--0--------0-----|--3-------3-3-3--|-----------------|-5--------5-5-5---|




|-----------------|-----------------|-----------------|------------------|
|-----------------|-----------------|-----------------|------------------|
|-----------------|-----------------|-3---------3-----|------------------|
|--0--------0-----|--3-------3-3-3--|-3---------3-----|-5--------5-5-5---|
|--0--------0-----|--3-------3-3-3--|-1---------1-----|-5--------5-5-5---|
|--0--------0-----|--3-------3-3-3--|-----------------|-5--------5-5-5---|

|-----------------|-----------------|-----------------|------------------|
|-----------------|-----------------|-----------------|------------------|
|-----------------|-----------------|-3---------3-----|------------------|
|--0--------0-----|--3-------3-3-3--|-3---------3-----|-5--------5-5-5---|
|--0--------0-----|--3-------3-3-3--|-1---------1-----|-5--------5-5-5---|
|--0--------0-----|--3-------3-3-3--|-----------------|-5--------5-5-5---|

|-----------------|-----------------|-----------------|------------------|
|-----------------|-----------------|-----------------|------------------|
|-3---3----3---3--|-3--3---3---3----|-5--5--5--5------|--5---5---5---5---|
|-3---3----3---3--|-3--3---3---3----|-5--5--3--5------|--5---5---5---3---|
|-1---1----1---1--|-1--1---1---1----|-3--3--3--3------|--3---3---3---3---|
|-----------------|-----------------|-----------------|------------------|

|-----------------|-----------------|-----------------|------------------|
|-----------------|-----------------|-----------------|------------------|
|-3---3----3---3--|-3--3---3---3----|-5--5--5--5------|--5---------------|
|-3---3----3---3--|-3--3---3---3----|-5--5--3--5------|--5---------------|
|-1---1----1---1--|-1--1---1---1----|-3--3--3--3------|--3---------------|
|-----------------|-----------------|-----------------|------------------|
comments
We did not receive enough feedback on this tab! Please rate:
print report bad tab
1 2 3 4 5
I want to post or [tab]
guest
You may want to rate the tab now too:
select rating
Please do not post tabs as comments. Select "correction" instead!