Oops, an error
Loading. Please wait.

Save Me Bass Tab

672 views 6 this week
no commentswrite comment
1 2 3 4 5
excellent!
x 2
Autoscroll
+/-
esc
set tempo
stop
Contributor
Difficulty
Tuning
novice
C# G# C# F# A# D#
WARNING: You are trying to view
                                    content from Ultimate-Guitar.com
                                    in an unauthorized application,
                                    which is prohibited.

                                    Please use an official Ultimate
                                    Guitar Tabs application for iPhone,
                                    iPad or Android to access legitimate
                                    chords, guitar, bass, and drum tabs
                                    from Ultimate-Guitar.com database.

                                    Type "ultimate guitar tabs" in Apple
                                    App Store's or Android Market's
                                    search to find the application.
Artist: My Darkest Days.
Song  : Save Me.
Album : My Darkest Days.
Tuning: Drop Db / C# (Db, Ab, Db, Gb / C#, G#, C#, F#).
Tabber: BlueKnife.

Time Signature: 4/4.
Tempo: 100.

Intro:
|-----------------|-----------------|-----------------|-----------------|
|-----------------|-----------------|-----------------|-----------------|
|-------------1-3-|-------------1-3-|-------------1-3-|-----------------|
|-0---0---0-------|-0---0---0-------|-0---0---0-------|-3---------------|
  1 & 2 & 3 & 4 &   1 & 2 & 3 & 4 &   1 & 2 & 3 & 4 &   1 & 2 & 3 & 4 &  
  E E E E E E E E   E E E E E E E E   E E E E E E E E   W

|-----------------|-----------------|-----------------|-----------------|
|-----------------|-----------------|-----------------|-----------------|
|-----------------|---------1-1-3-3-|-----------------|-----------------|
|-0---0-----0---0-|-0---0-----------|-0---0-----0---0-|-0---0---3-3-5-5-|
  1 & 2 & 3 & 4 &   1 & 2 & 3 & 4 &   1 & 2 & 3 & 4 &   1 & 2 & 3 & 4 &  
  E E E Q   Q   E   E E E E E E E E   E E E Q   Q   E   E E E E E E E E


Verse 1:
|-----------------|-----------------|-----------------|-----------------|
|-----------------|-----------------|-----------------|-----------------|
|-------------1-3-|-------------1-3-|-------------1-3-|---------1-1-3-3-|
|-0---0---0-------|-0---0---0-------|-0---0---0-------|-3-3-3-3---------|
  1 & 2 & 3 & 4 &   1 & 2 & 3 & 4 &   1 & 2 & 3 & 4 &   1 & 2 & 3 & 4 &
  E E E E E E E E   E E E E E E E E   E E E E E E E E   E E E E E E E E

|-----------------|-----------------|-----------------|-----------------|
|-----------------|-----------------|-----------------|-----------------|
|-------------1-3-|-------------1-3-|-------------1-3-|---------1-1-3-3-|
|-0---0---0-------|-0---0---0-------|-0---0---0-------|-3-3-3-3---------|
  1 & 2 & 3 & 4 &   1 & 2 & 3 & 4 &   1 & 2 & 3 & 4 &   1 & 2 & 3 & 4 &
  E E E E E E E E   E E E E E E E E   E E E E E E E E   E E E E E E E E

|-----------------|-----------------|-----------------|-----------------|
|-----------------|-----------------|-----------------|-----------------|
|-------------1-3-|-------------1-3-|-------------1-3-|---------1-1-3-3-|
|-0---0---0-------|-0---0---0-------|-0---0---0-------|-3-3-3-3---------|
  1 & 2 & 3 & 4 &   1 & 2 & 3 & 4 &   1 & 2 & 3 & 4 &   1 & 2 & 3 & 4 &
  E E E E E E E E   E E E E E E E E   E E E E E E E E   E E E E E E E E

|-----------------|-----------------|-----------------|-----------------|
|-----------------|-----------------|-----------------|-----------------|
|-------------1-3-|-------------1-3-|-------------1-3-|---------1-1-3-3-|
|-0---0---0-------|-0---0---0-------|-0---0---0-------|-3-3-3-3---------|
  1 & 2 & 3 & 4 &   1 & 2 & 3 & 4 &   1 & 2 & 3 & 4 &   1 & 2 & 3 & 4 &
  E E E E E E E E   E E E E E E E E   E E E E E E E E   E E E E E E E E


Pre-Chorus 1:
|-----------------|-----------------|-----------------|-----------------|
|-----------------|-----------------|-----------------|-----------------|
|-------3-3-3-3-3-|-----------------|-------3-3-3-3-3-|-----------------|
|-0-0-0-----------|-3-3-3-5-5-5-3-3-|-0-0-0-----------|-----------------|
  1 & 2 & 3 & 4 &   1 & 2 & 3 & 4 &   1 & 2 & 3 & 4 &   1 & 2 & 3 & 4 &  
  E E E E E E E E   E E E E E E E E   E E E E E E E E   W


Chorus 1:
|-----------------|-----------------|-----------------|-----------------|
|-----------------|-----------------|-----------------|-----------------|
|-------3-----3---|-----------------|-------3-----3---|-----------------|
|-0---------------|-3-----5-----3---|-0---------------|-3-----5-----3---|
  1 & 2 & 3 & 4 &   1 & 2 & 3 & 4 &   1 & 2 & 3 & 4 &   1 & 2 & 3 & 4 &
  Q·    Q·    Q     Q·    Q·    Q     Q·    Q·    Q     Q·    Q·    Q

|-----------------|-----------------|-----------------|-----------------|
|-----------------|-----------------|-----------------|-----------------|
|-------3-----3---|-----------------|-------3-----3---|-----------------|
|-0---------------|-3-----5-----3---|-0---------------|-3-----5-----3---|
  1 & 2 & 3 & 4 &   1 & 2 & 3 & 4 &   1 & 2 & 3 & 4 &   1 & 2 & 3 & 4 &
  Q·    Q·    Q     Q·    Q·    Q     Q·    Q·    Q     Q·    Q·    Q


Post-Chorus 1:
|-----------------|-----------------|-----------------|-----------------|
|-----------------|-----------------|-----------------|-----------------|
|-----------------|---------1-1-3-3-|-----------------|-----------------|
|-0---0-----0---0-|-0---0-----------|-0---0-----0---0-|-0---0---3-3-5-5-|
  1 & 2 & 3 & 4 &   1 & 2 & 3 & 4 &   1 & 2 & 3 & 4 &   1 & 2 & 3 & 4 &  
  E E E Q   Q   E   E E E E E E E E   E E E Q   Q   E   E E E E E E E E


Verse 2:
|-----------------|-----------------|-----------------|-----------------|
|-----------------|-----------------|-----------------|-----------------|
|-------------1-3-|-------------1-3-|-------------1-3-|---------1-1-3-3-|
|-0---0---0-------|-0---0---0-------|-0---0---0-------|-3-3-3-3---------|
  1 & 2 & 3 & 4 &   1 & 2 & 3 & 4 &   1 & 2 & 3 & 4 &   1 & 2 & 3 & 4 &
  E E E E E E E E   E E E E E E E E   E E E E E E E E   E E E E E E E E

|-----------------|-----------------|-----------------|-----------------|
|-----------------|-----------------|-----------------|-----------------|
|-------------1-3-|-------------1-3-|-------------1-3-|---------1-1-3-3-|
|-0---0---0-------|-0---0---0-------|-0---0---0-------|-3-3-3-3---------|
  1 & 2 & 3 & 4 &   1 & 2 & 3 & 4 &   1 & 2 & 3 & 4 &   1 & 2 & 3 & 4 &
  E E E E E E E E   E E E E E E E E   E E E E E E E E   E E E E E E E E


Pre-Chorus 2:
|-----------------|-----------------|-----------------|-----------------|
|-----------------|-----------------|-----------------|-----------------|
|-------3-3-3-3-3-|-----------------|-------3-3-3-3-3-|-----------------|
|-0-0-0-----------|-3-3-3-5-5-5-3-3-|-0-0-0-----------|-----------------|
  1 & 2 & 3 & 4 &   1 & 2 & 3 & 4 &   1 & 2 & 3 & 4 &   1 & 2 & 3 & 4 &  
  E E E E E E E E   E E E E E E E E   E E E E E E E E   W


Chorus 2:
|-----------------|-----------------|-----------------|-----------------|
|-----------------|-----------------|-----------------|-----------------|
|-------3-----3---|-----------------|-------3-----3---|-----------------|
|-0---------------|-3-----5-----3---|-0---------------|-3-----5-----3---|
  1 & 2 & 3 & 4 &   1 & 2 & 3 & 4 &   1 & 2 & 3 & 4 &   1 & 2 & 3 & 4 &
  Q·    Q·    Q     Q·    Q·    Q     Q·    Q·    Q     Q·    Q·    Q

|-----------------|-----------------|-----------------|-----------------|
|-----------------|-----------------|-----------------|-----------------|
|-------3-----3---|-----------------|-------3-----3---|-----------------|
|-0---------------|-3-----5-----3---|-0---------------|-3-----5-----3---|
  1 & 2 & 3 & 4 &   1 & 2 & 3 & 4 &   1 & 2 & 3 & 4 &   1 & 2 & 3 & 4 &
  Q·    Q·    Q     Q·    Q·    Q     Q·    Q·    Q     Q·    Q·    Q


Post-Chorus 2:
|-----------------|-----------------|-----------------|-----------------|
|-----------------|-----------------|-----------------|-----------------|
|-----------------|---------1-1-3-3-|-----------------|-----------------|
|-0---0-----0---0-|-0---0-----------|-0---0-----0---0-|-0---0---3-3-5-5-|
  1 & 2 & 3 & 4 &   1 & 2 & 3 & 4 &   1 & 2 & 3 & 4 &   1 & 2 & 3 & 4 &  
  E E E Q   Q   E   E E E E E E E E   E E E Q   Q   E   E E E E E E E E


Bridge:
|-----------------|-----------------|-----------------|-----------------|
|-----------------|-----------------|-----------------|-----------------|
|-----------------|-----------------|-----------------|-----------------|
|-----------------|-----------------|-----------------|-----------------|
  1 & 2 & 3 & 4 &   1 & 2 & 3 & 4 &   1 & 2 & 3 & 4 &   1 & 2 & 3 & 4 &  
  W                 W                 W                 W

|-----------------|-----------------|-----------------|-----------------|
|-----------------|-----------------|-----------------|-----------------|
|-----------------|-----------------|-----------------|-----------------|
|-0---0---0---0---|-0---0---0---0---|-0---0---0---0---|-----------------|
  1 & 2 & 3 & 4 &   1 & 2 & 3 & 4 &   1 & 2 & 3 & 4 &   1 & 2 & 3 & 4 &  
  E E E E E E E E   E E E E E E E E   E E E E E E E E   W


Chorus 3:
|-----------------|-----------------|-----------------|-----------------|
|-----------------|-----------------|-----------------|-----------------|
|-------3-----3---|-----------------|-------3-----3---|-----------------|
|-0---------------|-3-----5-----3---|-0---------------|-3-----5-----3---|
  1 & 2 & 3 & 4 &   1 & 2 & 3 & 4 &   1 & 2 & 3 & 4 &   1 & 2 & 3 & 4 &
  Q·    Q·    Q     Q·    Q·    Q     Q·    Q·    Q     Q·    Q·    Q

|-----------------|-----------------|-----------------|-----------------|
|-----------------|-----------------|-----------------|-----------------|
|-------3-----3---|-----------------|-------3-----3---|-----------------|
|-0---------------|-3-----5-----3---|-0---------------|-3-----5-----3---|
  1 & 2 & 3 & 4 &   1 & 2 & 3 & 4 &   1 & 2 & 3 & 4 &   1 & 2 & 3 & 4 &
  Q·    Q·    Q     Q·    Q·    Q     Q·    Q·    Q     Q·    Q·    Q


Post-Chorus 3:
|-----------------|-----------------|-----------------|-----------------|
|-----------------|-----------------|-----------------|-----------------|
|-----------------|---------1-1-3-3-|-----------------|-----------------|
|-0---0-----0---0-|-0---0-----------|-0---0-----0---0-|-0---0---3-3-5-5-|
  1 & 2 & 3 & 4 &   1 & 2 & 3 & 4 &   1 & 2 & 3 & 4 &   1 & 2 & 3 & 4 &
  E E E Q   Q   E   E E E E E E E E   E E E Q   Q   E   E E E E E E E E

|-----------------|-----------------|-----------------|-----------------|
|-----------------|-----------------|-----------------|-----------------|
|-----------------|---------1-1-3-3-|-----------------|-----------------|
|-0---0-----0---0-|-0---0-----------|-0---0-----0---0-|-0---0---3-3-5-5-|
  1 & 2 & 3 & 4 &   1 & 2 & 3 & 4 &   1 & 2 & 3 & 4 &   1 & 2 & 3 & 4 &
  E E E Q   Q   E   E E E E E E E E   E E E Q   Q   E   E E E E E E E E


====================
|Time Symbology:   |
|(W): Whole Note.  |
|(Q): Quarter Note.|
|(E): Eighth Note. |
|(·): Dotted Note. |
====================
===========================================
|Note: Guitar Pro Tab in my contributions.|
===========================================
comments
We did not receive enough feedback on this tab! Please rate:
print report bad tab
1 2 3 4 5
I want to post or [tab]
guest
You may want to rate the tab now too:
select rating
Please do not post tabs as comments. Select "correction" instead!