Oops, an error
Loading. Please wait.

The Witching Hour Bass Tab

353 views 1 this week
1 commentread comment
1 2 3 4 5
excellent!
x 1
Autoscroll
+/-
esc
set tempo
stop
Contributor
Hey! There's an official Ultimate Guitar app which is ideal
for learning songs when you're away from computer. Get the app
WARNING: You are trying to view
                                    content from Ultimate-Guitar.com
                                    in an unauthorized application,
                                    which is prohibited.

                                    Please use an official Ultimate
                                    Guitar Tabs application for iPhone,
                                    iPad or Android to access legitimate
                                    chords, guitar, bass, and drum tabs
                                    from Ultimate-Guitar.com database.

                                    Type "ultimate guitar tabs" in Apple
                                    App Store's or Android Market's
                                    search to find the application.
-------------------------------------------------------------------------------
			     My Heart to Fear - The Witching Hour
-------------------------------------------------------------------------------

Tabbed By : Sk8ubumz
e-mail: Sk8ubumz@aol.

Basic melody of certain parts is off, but all of the notes are there.

Tuning: CGCF

F  :----------------|----------------|------------------------|
C  :----------------|----------------|------------------------|
G  :----------------|----------------|------------------------|
C  :----------------|----------------|0-0-0-0-0-0-0-0*-0-0-0-0|

F  :---------------------|------------------------|------------------|
C  :------------0-2-3-2--|------------------------|------------0-5-3-|
G  :--------------------3|------------------------|------------------|
C  :-0-0-0-0*------------|0-0-0-0-0-0-0-0*-0-0-0-0|-0-0-0-0*---------|

F  :------------------------|---------------------|------------------------|
C  :------------------------|------------0-2-3-2--|------------------------|
G  :------------------------|--------------------3|------------------------|
C  :0-0-0-0-0-0-0-0*-0-0-0-0|-0-0-0-0*------------|0-0-0-0-0-0-0-0*-0-0-0-0|

F  :------------------|-----------------------|----------------------|
C  :------------------|-----------------------|------------------3-h5|
G  :--------------4---|-----------------------|-------------3-h5-----|
C  :-0-0-0-0*---0*----|0-0-0-0-0-0*--0-0-0-0-0|-0-0*------0*---------|

F  :----------------------------|----------------|-----------------------|
C  :------------5-p3------------|----------------|-----------------------|
G  :-----------------5-p3-------|----------------|-----------------------|
C  :0-0-0-0-0-0*----------0-0-0*|0*--0*--0*--0*--|0-0-0-0-0-0*--0-0-0-0-0|

F  :----------------------|----------------------------|----------------|
C  :------------------3-h5|------------5-p3------------|----------------|
G  :-------------3-h5-----|-----------------5-p3-------|----------------|
C  :-0-0*------0*---------|0-0-0-0-0-0*----------0-0-0*|0*-*0*--0*--0*--|

F  :----------------|-------------------------------------|
C  :----------------|-------------------------------------|
G  :----------------|-------------------------------------|
C  :----------------|------------12-/11-/10-/9-/8-/7-/6-/5|

F  :-------------------------|-------------------|------------------------|
C  :-------------------------|-------------------|------------------------|
G  :-------------------------|-------------5---6-|------------------------|
C  :0-0-0-0-0-0*-0-0*-0-0-0-0|*0-0-0-0*0*1---4---|0-0-0-0-0-0*-----0-0-0-0|

F  :--------------------|-------------------------|-------------------|
C  :--------------------|-------------------------|-------------------|
G  :-------------6---5-6|-------------------------|-------------5---6-|
C  :*0-0-0-0*0*4---1----|0-0-0-0-0-0*-0-0*-0-0-0-0|*0-0-0-0*0*1---4---|

F  :----------------|----------------|-------------------------|
C  :----------------|----------------|-------------------------|
G  :----------------|----------------|-------------------------|
C  :0---------------|0*--------------|0-0-0-0-0-0*-0-0*-0-0-0-0|

F  :-------------------|------------------------|-----------------6---0*-|
C  :-------------------|------------------------|---------------5---2----|
G  :-------------------|------------------------|-----------4-7----------|
C  :*0-0-0-0*0*--------|0-0-0-0-0-0*-----0-0-0-0|*0-0-0-0*0*-------------|

F  :------------------------|-----------------------|
C  :------------------------|-----------------------|
G  :0-0-0-0-0---------------|---------------5-----6-|
C  :1-1-1-1-1---0-0*-0-0-0-0|*0-0-0-0*0*0-0---0-0---|

F  :----------------------------|-------------------|----------------|
C  :----------------------------|-------------------|----------------|
G  :------------6-5-4-3*--------|-------------------|----------------|
C  :0-0-0-0-0-0----------0-0-0-0|*0-0-0-0*0*--------|----------------|

F  :----------------|--------------------------|------------------------|
C  :----------------|--------------------------|------------------------|
G  :--------4-*-5-*-|4-4-4-4-4-4-4-4-4-4-4-4-4-|4-4-4-4-4-4-4-4-4-4-4*--|
C  :0-*-----0-*-0-*-|0-0-0-0-0-0-0-0-0-0-0-0-0-|0-0-0-0-0-0-0-0-0-0-0*--|

F  :--------------------------|---------------------|
C  :--------------------------|---------------------|
G  :4-4-4-4-4-4-4-4-4-4-4-4-4-|4-4-4-4-4-4-4*-------|
C  :0-0-0-0-0-0-0-0-0-0-0-0-0-|0-0-0-0-0-0-0*-------|

F  :--------------------------|--------------------------|
C  :--------------------------|--------------------------|
G  :--------------------------|--------------------------|
C  :0-0-0-0*0-0-0-0-0-0*0-0-0*|0-0-0-0*0-0-0-0-0-0*0-0-0*|

F  :--------------------------|--------------------------|
C  :--------------------------|--------------------------|
G  :--------------------------|--------------------------|
C  :0-0-0-0*0-0-0-0-0-0*0-0-0*|0-0-0-0*0-0-0-0-0-0*0-0-0*|

F  :--------------------------|--------------------------|
C  :--------------------------|--------------------------|
G  :--------------------5-8-5*|--------------------7-8-7*|
C  :0-0-0-0*0-0-0-0-0-0*------|0-0-0-0*0-0-0-0-0-0*------|

F  :--------------------------|------------------------|
C  :--------------------------|------------------------|
G  :--------------------5-7-8*|------------8-7-5-7-5-4-|
C  :0-0-0-0*0-0-0-0-0-0*------|0-0-0-0*0-0-------------|

F  :--------------------------|--------------------------|
C  :--------------------------|--------------------------|
G  :--------------------5-8-5*|--------------------7-8-7*|
C  :0-0-0-0*0-0-0-0-0-0*------|0-0-0-0*0-0-0-0-0-0*------|

F  :--------------------------|------------------------|----------------|
C  :--------------------------|------------------------|----------------|
G  :--------------------5-7-8*|------------8-7-5-7-5-4-|----------------|
C  :0-0-0-0*0-0-0-0-0-0*------|0-0-0-0*0-0-------------|0*------0*-0*-0*|

F  :--------------------|----------------|----------------|----------------|
C  :--------------------|----------------|----------------|----------------|
G  :--------0-0-0-0-0-0-|----------------|----------------|----------------|
C  :0*------1-1-1-1-1-1-|0*------0*-0*-0*|0*--------------|0*--------------|

F  :--------------------|----------------|----------------|----------------|
C  :--------------------|----------------|----------------|----------------|
G  :--------0-0-0-0-0-0-|----------------|----------------|----------------|
C  :--------1-1-1-1-1-1-|0*------0*-0*-0*|----------------|0---------------|

F  :----------------|----------------|
C  :----------------|----------------|
G  :----------------|----------------|
C  :----------------|8---------------|

F  :--------------------------------------------|----------------|
C  :--------------------------------------------|----------------|
G  :--------------------------------------------|----------------|
C  :7-------0-/1-/2-/3-/4-/5-/6-/7-/8-/9-/10-/11|8-8-8-8-8-8-8-8-|

F  :----------------|----------------|----------------|----------------|
C  :----------------|----------------|----------------|----------------|
G  :----------------|----------------|----------------|----------------|
C  :8-8-8-8-8-8-8-8-|0-0-0-0-0-0-0-0-|7-7-7-7-7-7-7-7-|8-8-8-8-8-8-8-8-|

F  :----------------|----------------|----------------|----------------|
C  :----------------|----------------|----------------|----------------|
G  :----------------|1-------3-------|5-------8-------|----------------|
C  :8-8-8-8-8-8-8-8-|----------------|----------------|3---------------|

F  :----------------|----------------|---------------------|
C  :----------------|----------------|---------------------|
G  :----------------|----------------|---------------------|
C  :----------------|----------------|0-0*0*-0*0-0-0*0-0-0*|

F  :------7-10-7-----|----------------|----------------|
C  :----7--------7---|------------5---|------------3---|
G  :5-8------------8-|--------------5-|--------------4-|
C  :-----------------|----------------|----------------|

F  :---------------------|------7-10-12-14-17-|----------14-17-14-|
C  :---------------------|----7---------------|-------------------|
G  :---------------------|--8-----------------|-------------------|
C  :0-0-0--0-0-0-0-0-0-0-|3-------------------|-------------------|

F  :12-10-12-14-12-10-12-10-|---------------------|----------------|
C  :------------------------|---------------------|----------------|
G  :------------------------|---------------------|----------------|
C  :------------------------|0-0*0*-0*0-0-0*0-0-0*|----------------|

F  :----------------|--------------------|---------------------|
C  :----------------|--------------------|---------------------|
G  :----------------|--------------------|---------0-0-0-0-0-0-|
C  :----------------|0-0------0-0-0-0-0-0|0-0------1-1-1-1-1-1-|

F  :--------------------|---------------------|--------------------|
C  :--------------------|---------------------|--------------------|
G  :--------------------|---------0-0-0-0-0-0-|--------------------|
C  :0-0------0-0-0-0-0-0|0-0------1-1-1-1-1-1-|0-0------0-0-0-0-0-0|

F  :---------------------|--------------------|---------------------|
C  :---------------------|--------------------|---------------------|
G  :---------0-0-0-0-0-0-|--------------------|---------0-0-0-0-0-0-|
C  :0-0------1-1-1-1-1-1-|0-0------0-0-0-0-0-0|0-0------1-1-1-1-1-1-|

F  :--------------------|-------------------|--------------------|
C  :--------------------|-------------------|--------------------|
G  :4*----4-4-4*4-4-4*--|--4-4-4*4*10*-8*-7*|4*----4-4-4*4-4-4*--|
C  :0*----0-0-0*0-0-0*--|--0-0-0*0*---------|0*----0-0-0*0-0-0*--|

F  :------------------|--------------------|-------------------|
C  :------------------|--------------------|-------------------|
G  :--4-4-4*4*0--0--0-|4*----4-4-4*4-4-4*--|--4-4-4*4*10*-8*-7*|
C  :--0-0-0*0*1--1--1-|0*----0-0-0*0-0-0*--|--0-0-0*0*---------|

F  :--------------------|----------------|--------------------|
C  :--------------------|----------------|--------------------|
G  :4*----4-4-4*4-4-4*--|----------------|--------------------|
C  :0*----0-0-0*0-0-0*--|----------------|0-----0-0-0-0-0-0---|

F  :-------------------|--------------------|------------------|
C  :-------------------|--------------------|------------------|
G  :----------10--8--7-|--------------------|----------0--0--0-|
C  :--0-0-0-0--0--0--0-|0-----0-0-0-0-0-0---|--0-0-0-0-1--1--1-|

F  :--------------------|-------------------|--------------------|
C  :--------------------|-------------------|--------------------|
G  :--------------------|----------10--8--7-|--------------------|
C  :0-----0-0-0-0-0-0---|--0-0-0-0--0--0--0-|0-----0-0-0-0-0-0---|

F  :------------------|----------------|----------------|
C  :------------------|----------------|----------------|
G  :----------0--0--0-|*---------------|----------------|
C  :--0-0-0-0-1--1--1-|*---------------|----------------|

F  :------------------------------------------------------------3-/4-/5-/6|
C  :----------------------------------------------------------------------|
G  :----------------------------------------------------------------------|
C  :----------------------------------------------------------------------|

F  :/7----------------------------------------------------------------------
C  :---------------------2-/3-/4-/5-/6--------------------------------------
G  :-----------------------------------------------------2-/3-/4-/5-/6------
C  :------------------------------------------------------------------------

F  :---------|----------------|----------------|----------------|
C  :---------|----------------|----------------|----------------|
G  :---------|----------------|----------------|----------------|
C  :---------|0---------------|----------------|----------------|

F  :----------------|----------------|----------------|----------------|
C  :----------------|----------------|----------------|----------------|
G  :----------------|5-5-*-----------|0-0-*---3-3-*---|1-1-*-----------|
C  :--------0-*-0-*-|0-0-*-----------|1-1-*---0-0-*---|0-0-*-----------|

F  :----------------|----------------|----------------|----------------|
C  :----------------|----------------|----------------|----------------|
G  :5-5-*---4-4-*---|5-5-*-----------|0-0-*---3-3-*---|1-1-*-----------|
C  :0-0-*---0-0-*---|0-0-*-----------|1-1-*---0-0-*---|0-0-*-----------|

F  :----------------|----------------|----------------|----------------|
C  :--------------7-|----------------|----------------|----------------|
G  :5-5*5-8-4-4-8---|5-5-------------|0-0-*---3-3-*---|1-1-*-----------|
C  :0-0*----0-0-----|0-0-------------|1-1-*---0-0-*---|0-0-*-----------|

F  :----------------|----------------|----------------|----------------|
C  :----------------|----------------|----------------|----------------|
G  :5-5-*---4-4-*---|5-5-*-----------|0-0-*---3-3-*---|1-1-*-----------|
C  :0-0-*---0-0-*---|0-0-*-----------|1-1-*---0-0-*---|0-0-*-----------|

F  :----------------|----------------|----------------|----------------|
C  :--------------7-|----------------|----------------|----------------|
G  :5-5-5-8-4-4-8---|5-5-*-----------|5-5-*---5-5-*---|5-5-*-----------|
C  :0-0-----0-0-----|0-0-*-----------|0-0-*---0-0-*---|0-0-*-----------|

F  :----------------|----------------|----------------|----------------|
C  :----------------|----------------|----------------|----------------|
G  :5-5-*---5-5-*---|5-5-*-----------|5-5-*---5-5-*---|5-5-*-----------|
C  :0-0-*---0-0-*---|0-0-*-----------|0-0-*---0-0-*---|0-0-*-----------|

F  :----------------|----------------|----------------|
C  :----------------|----------------|----------------|
G  :5-5-*---5-5-*---|5-5-------------|---------------*|
C  :0-0-*---0-0-*---|0-0-------------|---------------*|

| /  slide up
| \  slide down
| h  hammer-on
| p  pull-off
| ~  vibrato
| +  harmonic
| x  Mute note
===============================================================================
comments
We did not receive enough feedback on this tab! Please rate:
print report bad tab
1 2 3 4 5
1 comment total.
+1 reply
james4GOD wrote on April 28 2011, 08:28 pm

this is very unclear, poorly organized, i cant kepp track of where i am at all

I want to post or [tab]
guest
You may want to rate the tab now too:
select rating
Please do not post tabs as comments. Select "correction" instead!