Oops, an error
Loading. Please wait.

You Be Trollin While I Be Rollin Bass Tab

126 views 1 this week
no commentswrite comment
1 2 3 4 5
accurate
x 1
Autoscroll
+/-
esc
set tempo
stop
Contributor
Difficulty
Tuning
advanced
C G C F A D
Hey! There's an official Ultimate Guitar app which is ideal
for learning songs when you're away from computer. Get the app
WARNING: You are trying to view
                                    content from Ultimate-Guitar.com
                                    in an unauthorized application,
                                    which is prohibited.

                                    Please use an official Ultimate
                                    Guitar Tabs application for iPhone,
                                    iPad or Android to access legitimate
                                    chords, guitar, bass, and drum tabs
                                    from Ultimate-Guitar.com database.

                                    Type "ultimate guitar tabs" in Apple
                                    App Store's or Android Market's
                                    search to find the application.
-------------------------------------------------------------------------------
	      You be Trollin' While I be Rollin' - My Heart to Fear
-------------------------------------------------------------------------------

Tabbed By : Sk8ubumz
e-mail: Sk8ubumz

Tuning: CGCF

F  :----------------|----------------|--------------------------------|
C  :----------------|----------------|4-h5-p4-p0-1-h4-p1-p0-----------|
G  :----------------|----------------|--------------------------------|
C  :----------------|----------------|----------------------0-0*-0-0*-|

F  :----------------|---------------------|-----------------|
C  :----------------|------------10-12-10-|12---------------|
G  :----------------|------/8-12----------|-----------------|
C  :0---------------|---------------------|-----------------|

F  :--------------------|----------------|----------------|----------------|
C  :--12-10-8----8------|----------------|----------5-----|----------------|
G  :7---------10---10-8-|------------8---|------------8-5-|------------5---|
C  :--------------------|8-------------8-|----------------|5-------------5-|

F  :-----------------|-------------------------------|
C  :-----------------|-------------------------------|
G  :--------3---/7---|-------------------------------|
C  :--5-5-5----------|0-0-0-0-0-0-0-0-0-0-0-0-0-0-0-0|

F  :-------------------------------|-------------------------------|
C  :-------------------------------|-------------------------------|
G  :-------------------------------|-------------------------------|
C  :0-0-0-0-0-0-0-0-0-0-0-0-0-0-0-0|0-0-0-0-0-0-0-0-0-0-0-0-0-0-0-0|

F  :------------------------|-------------------------------|
C  :12-p10-------------7-h8-|-------------------------------|
G  :-------12-10-8-h10------|-------------------------------|
C  :------------------------|8-8-8-8-8-8-8-8-8-8-8-8-8-8-8-8|

F  :-------------------------------|-------------------------------|
C  :-------------------------------|-------------------------------|
G  :-------------------------------|-------------------------------|
C  :8-8-8-8-8-8-8-8-8-8-8-8-8-8-7-7|5-5-5-5-5-5-5-5-5-5-5-5-5-5-5-5|

F  :-------------------------------------------------|
C  :---------------------3-/4-/5-/6-/7---------------|
G  :-----------------------------------------8-------|
C  :5-5-5-5-5-5-5-5*---------------------------------|

F  :------------------------|------------------|------------------------|
C  :------------------------|------------------|------------------------|
G  :------------------------|------------------|------------------------|
C  :0-0-0-0*0-0*0-0*-0-0-0-0|*0-0*0-0*---------|0-0-0-0*0-0*0-0*-0-0-0-0|

F  :------------------|------------------------|------------------|
C  :------------------|------------------------|------------------|
G  :------------------|------------------------|------------------|
C  :*0-0*0-0*---------|0-0-0-0*0-0*0-0*-0-0-0-0|*0-0*0-0*---------|

F  :---------------------|--------7-------------6|------------------------|
C  :---------------------|----------7---------6--|------------------------|
G  :---------------------|------------8-5-4-7----|------------------------|
C  :0-0-0-0*0-0*0-0*-----|-----------------------|0-0-0-0*0-0*0-0*-0-0-0-0|

F  :-------------------------------|------------------------|
C  :----------7-h8-p7-p0-11-p0-7-h8|------------------------|
G  :-------------------------------|------------------------|
C  :*0-0*0-0*----------------------|0-0-0-0*0-0*0-0*-0-0-0-0|

F  :-------------------------------|------------------------|
C  :----------4-h5-p4-p0-1-h4-p1-p0|------------------------|
G  :-------------------------------|------------------------|
C  :*0-0*0-0*----------------------|0-0-0-0-0-0-0-0--0-0-0-0|

F  :---------------------------------|------------------------|
C  :----------14-h15-p14-p0-11-p0-14-|------------------------|
G  :---------------------------------|------------------------|
C  :-0-0-0-0*------------------------|0-0-0-0*0-0*0-0*-0-0-0-0|

F  :--------------------------------|--------------------------|
C  :--------------------------------|--------------------------|
G  :--------------------------------|--------------------------|
C  :*0-0*0-0*-0-/1-/2-/3-/4-/5-/6-/7|7-7-7-7-7-7*---7-7-7-7-7-7|

F  :-------------------|--------------------------|
C  :-------------------|--------------------------|
G  :-------------------|--------------------------|
C  :*-8-8-8-8*---------|7-7-7-7-7-7*---7-7-7-7-7-7|

F  :---------------------------------------|--------------------------|
C  :---------------------------------------|--------------------------|
G  :---------------4-/5-/6-/7-/8-/9-/10-/11|--------------------------|
C  :*-3-3-3-3*---2-------------------------|7-7-7-7-7-7*---7-7-7-7-7-7|

F  :-------------------|-------------------------------------------|
C  :-------------------|-------------------------------------------|
G  :---------------3---|*---------------14-/13-/12-/11-/10-/9-/8-/7|
C  :*-8-8-8-8*---5---5-|--7-7*-7-7*--------------------------------|

F  :--------9-h10-p9---------------|--------------------|
C  :--7-h10----------10-p7---------|--------------------|
G  :8----------------------7---*---|--------------------|
C  :-------------------------------|0-0*-------0*0-0-0-0|

F  :---------------------|--------------------|-------------------|
C  :---------------------|--------------------|-------------------|
G  :---------------------|--------------------|-------------------|
C  :*0-0*0-0*0-0*0*0-0-0*|0-0*-------0*0-0-0-0|*0-0*0-0*0-0*0*----|

F  :-------------------------------------------------------|
C  :-------------------------------------------------------|
G  :-------------------------------------------------------|
C  :12-/11-/10-/9-/8-/7-/6-/5-/4-/3-/2-/1-/0--*---0-0-0-0-0|

F  :---------------------|--------------------|-------------------|
C  :---------------------|--------------------|-------------------|
G  :---------------------|--------------------|-------------------|
C  :-0-0-0-0-0-0-0-0-0-0-|0-0*-------0*0-0-0-0|*0-0*0-0*0-0*0*----|

F  :----------------|----------------|----------------|----------------|
C  :----------------|----------------|----------------|----------------|
G  :----------------|----------------|----------------|----------------|
C  :----------------|8-8-8-8-8-8-8-8-|8-8-8-8-8-8-8-8-|3-3-3-3-3-3-3-3-|

F  :----------------|----------------|----------------|----------------|
C  :----------------|----------------|----------------|----------------|
G  :----------------|----------------|----------------|----------------|
C  :3-3-3-3-3-3-3-3-|7-7-7-7-7-7-7-7-|7-7-7-7-7-8-7-5-|0-0-0-0-0-0-0-0-|

F  :----------------|----------------|----------------|----------------|
C  :----------------|----------------|----------------|----------------|
G  :----------------|----------------|----------------|----------------|
C  :2-2-2-2-3-3-3-3-|8-8-8-8-8-8-8-8-|8-8-8-8-8-8-8-8-|3-3-3-3-3-3-3-3-|

F  :----------------|----------------|----------------|----------------|
C  :----------------|----------------|----------------|----------------|
G  :----------------|----------------|----------------|----------------|
C  :3-3-3-3-3-3-3-3-|7-7-7-7-7-7-7-7-|7-7-7-7-7-8-7-5-|0-0-0-0-0-0-0-0-|

F  :----------------|----------------|-----------------|
C  :----------------|----------------|-----------------|
G  :----------------|----------------|--------7--------|
C  :2-2-2-2-3-3-3-3-|8---------------|8-----------10---|

F  :-------------------------------------|
C  :-------------------------------------|
G  :------------------------------------8|
C  :12-12-h0-10-h12-*--12-p0-10-h12-p10--|

F  :----------------7-h10-p7------------|---------------------------------|
C  :-------------------------8-7-h8-p7--|---------------------------------|
G  :-----------------------------------8|---------------------------------|
C  :--12-p0-10-h12-*--------------------|--12-p0-10-h12-0-0-h15-0-0-h10---|

F  :------------------------------------|
C  :------------------------------------|
G  :------------------------------------|
C  :15-15-15-15-15-15-14-14-14-14-14-10-|

F  :-------------------------------------|
C  :-------------------------------------|
G  :------------------------------------8|
C  :12-12-h0-10-h12-*--12-p0-10-h12-p10--|

F  :----------------7-h10-p7------------|---------------------------------|
C  :-------------------------8-7-h8-p7--|---------------------------------|
G  :-----------------------------------8|---------------------------------|
C  :--12-p0-10-h12-*--------------------|--12-p0-10-h12-0-0-h15-0-0-h10---|

F  :------------------------------------|
C  :------------------------------------|
G  :------------------------------------|
C  :15-15-15-15-15-15-14-14-14-14-14-10-|

F  :-------------------------------------|
C  :-------------------------------------|
G  :------------------------------------8|
C  :12-12-h0-10-h12-*--12-p0-10-h12-p10--|

F  :----------------7-h10-p7------------|---------------------------------|
C  :-------------------------8-7-h8-p7--|---------------------------------|
G  :-----------------------------------8|---------------------------------|
C  :--12-p0-10-h12-*--------------------|--12-p0-10-h12-0-0-h15-0-0-h10---|

F  :------------------------------------|
C  :------------------------------------|
G  :------------------------------------|
C  :15-15-15-15-15-15-14-14-14-14-14-10-|

F  :-------------------------------------|
C  :-------------------------------------|
G  :------------------------------------8|
C  :12-12-h0-10-h12-*--12-p0-10-h12-p10--|

F  :----------------7-h10-p7------------|---------------------------------|
C  :-------------------------8-7-h8-p7--|---------------------------------|
G  :-----------------------------------8|---------------------------------|
C  :--12-p0-10-h12-*--------------------|--12-p0-10-h12-0-0-h15-0-0-h10---|

F  :------------------------------------|--------------------------|
C  :------------------------------------|--------------------------|
G  :------------------------------------|--------------------------|
C  :15-15-15-15-15-15-14-14-14-14-14-10-|7-7-7-7-7-7*---7-7-7-7-7-7|

F  :-------------------|--------------------------|
C  :-------------------|--------------------------|
G  :-------------------|--------------------------|
C  :*-8-8-8-8*---------|7-7-7-7-7-7*---7-7-7-7-7-7|

F  :---------------------------------------|--------------------------|
C  :---------------------------------------|--------------------------|
G  :---------------4-/5-/6-/7-/8-/9-/10-/11|--------------------------|
C  :*-3-3-3-3*---2-------------------------|7-7-7-7-7-7*---7-7-7-7-7-7|

F  :-------------------|-------------------------------------------|
C  :-------------------|-------------------------------------------|
G  :---------------3---|*---------------14-/13-/12-/11-/10-/9-/8-/7|
C  :*-8-8-8-8*---5---5-|--7-7*-7-7*--------------------------------|

F  :--------9-h10-p9---------------|-----------------|
C  :--7-h10----------10-p7---------|-----------------|
G  :8----------------------7---*---|-----------------|
C  :-------------------------------|0-0--------------|

F  :------------------------------|--------------------|------------------|
C  :------------------------------|--------------------|------------------|
G  :------------------------------|0-0-0-0-0-0-0-0-0-0-|--0-0-0-6-6-6-0-*-|
C  :--------8-/7-/6-/5-/4-/3-/2-/1|1-1-1-1-1-1-1-1-1-1-|--1-1-1-------1-*-|

F  :----------------|-------------------|--------------------|
C  :----------------|-------------------|--------------------|
G  :----------------|------------12-12*-|0-0-0-0-0-0-0-0-0-0-|
C  :----------------|------------13-13*-|1-1-1-1-1-1-1-1-1-1-|

F  :------------------|----------------|-------------------|
C  :------------------|----------------|-------------------|
G  :--0-0-0-6-6-6-0-*-|----------------|------------12-12*-|
C  :--1-1-1-------1-*-|----------------|------------13-13*-|

F  :--------------------|------------------|----------------|
C  :--------------------|------------------|----------------|
G  :0-0-0-0-0-0-0-0-0-0-|--0-0-0-6-6-6-0-*-|----------------|
C  :1-1-1-1-1-1-1-1-1-1-|--1-1-1-------1-*-|----------------|

F  :----------------|
C  :----------------|
G  :----------------|
C  :----------------|

F  :------------------------------------------------------------|
C  :------------------------------------------------------------|
G  :------------------------------------------------------------|
C  :--------15-/14-/13-/12-/11-/10-/9-/8-/7-/6-/5-/4-/3-/2-/1-/0|

F  :--------------------|--------------------6|--------------------|
C  :--------------------|------------------6--|--------------------|
G  :4-4-4-4-4-4-4-4-4-4-|--4-4-4-5-5-5-4-7----|4-4-4-4-4-4-4-4-4-4-|
C  :0-0-0-0-0-0-0-0-0-0-|--0-0-0--------------|0-0-0-0-0-0-0-0-0-0-|

F  :--------------------6|--------------------|--------------------6|
C  :------------------6--|--------------------|------------------6--|
G  :--4-4-4-5-5-5-4-7----|4-4-4-4-4-4-4-4-4-4-|--4-4-4-5-5-5-4-7----|
C  :--0-0-0--------------|0-0-0-0-0-0-0-0-0-0-|--0-0-0--------------|

F  :--------------------|--------------------6|-----------------|
C  :--------------------|------------------6--|-----------------|
G  :4-4-4-4-4-4-4-4-4-4-|--4-4-4-5-5-5-4-7----|-----------------|
C  :0-0-0-0-0-0-0-0-0-0-|--0-0-0--------------|0-0*-------------|
comments
We did not receive enough feedback on this tab! Please rate:
print report bad tab
1 2 3 4 5
I want to post or [tab]
guest
You may want to rate the tab now too:
select rating
Please do not post tabs as comments. Select "correction" instead!