Oops, an error
Loading. Please wait.

Especially For You Chords

by Mymp
ver5
ver5

Whole song

More versions @911Tabs.com
34,094 views 430 this week
2 commentsread comments
1 2 3 4 5
excellent!
x 4
add to favorites launch autoscroll
font size
0
reset
transpose
0
reset
highlight chords
display chords
Autoscroll
+/-
esc
set tempo
stop
Contributor
Difficulty
intermediate
WARNING: You are trying to view
                                    content from Ultimate-Guitar.com
                                    in an unauthorized application,
                                    which is prohibited.

                                    Please use an official Ultimate
                                    Guitar Tabs application for iPhone,
                                    iPad or Android to access legitimate
                                    chords, guitar, bass, and drum tabs
                                    from Ultimate-Guitar.com database.

                                    Type "ultimate guitar tabs" in Apple
                                    App Store's or Android Market's
                                    search to find the application.
Especially For you
Intro:   C9                                                           EbM9 (068766)
               FM7      
Especially for you          
                 D7                              Gm 
I wanna let you know what I was going      Through
                      C9
All the time we were apart I thought of
   F              F/E            EbM9         Dm          Bb
Y---o---u ,   You were  in my   heart     My love never change
     Bb               C9                  FM7
I still feel the same     Especially for you
                      D7                          Gm 
I wanna tell you I was feeling that way    too
                        C9
And if dreams were wings, you know I have flown to 
  F              F/E            EbM9         Dm          Bb
Y---o---u      to   be where you are    no matter how far

   And now that I'm next to you

Refrain: 
             F
   No more dreaming about tomorrow
             A7
   Forget the loneliness and the sorrow
          Dm7                           Bb
   I've got to say its all because of  you and now we're back  

Chorus: (this part is a little tricky with tapping and dapat mabilis kamay nyo)

      Am          Dm7         Gm         C
    Toge -     ther    ,  Toge   -    ther   I wanna   
      Am          Dm7                 Gm         C
    Show      you my heart is       oh   so    true  and all the 
      Am          Dm7                 Gm         C
    Love      I had          is       especially     for you

Verse 2
Especially for you 
I wanna tell you, you mean all the world to me
How I'm certain that our love was meant to be
You changed my life
You showed me the way
+And now that I'm next to you

Refrain 2:(just like refrain)
ive waited long enough to find you
I wanna put all the hurt behind you Oh,
And I wanna bring out all the love inside you,Oh

(CHORUS)
Adlib:
E---------------------------------------------------------|
B--------------------------------------------7-8s10-8-----|
G---7-9-9s10-9-7-7h9-7s5-------5-7-7-7-8-7-8--------------|
D--7-------------------------7----------------------------|
A--------------------------5------------------------------|
E---------------------------------------------------------|

E---------------------------------------------------------|
B---------------------------------------------------------|
G---------------------------------------------------------|
D--10p8-10p8-10-8-10-10s12-10-8-7-------------------------|
A---------------------------------------------------------|
E---------------------------------------------------------|
repeat refrain
repeat chorus
Ending:
         C9    F
2 comments total.
0 reply
vanbeh wrote on June 1 2012, 08:01 am

Song: Especially for you
Artist: M.Y.M.P.

TAP= slap the string/strings
h = hammer on
p = pull off
/ = slide up
\ = slide down
x = dead string
+ = natural harmonic
[] = artificial harmonic
. = staccato effect
^ = strum

Intro:
C7add9 FMaj7
+ . .
E:---------|-------------------------------|-0---------------0---------|
B:---------|-3-------T---3-----------T-0---|-1-----1-T---1-------1---T-|
G:-T-x-----|-3-------A---3-----------A-----|-2-----2-A---2---------2-A-|
D:-A-x-----|---------------------3---------|---------------------------|
A:-P----1--|-3-------P---3-----------------|---------------------------|
E:---------|-------------------------P---0-|-1-------P---1-----------P-|

D7 Gm .
E:-----------------------------------|-------3-T-------3--------------|
B:-----3-----x-T---3---------3-T-x---|-3-----3-A---3-------3---T-x----|
G:-----5-----x-A---5---------5-A-x---|-3-----------3---------3-A-x----|
D:---------x-------4-----------------|-----------------------------2p0|
A:-----5-------P---5-------5---P-----|-------------------------P------|
E:-0-------------------------------0-|-3-------P---3---------------0--|

C7add9. F C/E
E:----------------3-------------|-----1---T---------------------|
B:3-----3-T---3-------3---T-x---|-----1---A-------5---5---T-----|
G:3-----3-A---3---------3-A-x---|-----------------5---5---A-----|
D:------------------------------|-----------------5-------------|
A:3-------P---3-----------P-----|-----------------------------0-|
E:----------------------------0-|-1-------P---0---0-------P-----|

Dmin/D# Bb/D Bbmin C7add9
.
E:-----5---5-------------------------------------------1---------|---|
B:-----6---6-----------3---T-----------2---T---2-------2---T-----|-3-|
G:---------------------3---A-----------3---A---1-------3---A-----|-3-|
D:-----------------0-------------------3-------3-----------------|---|
A:-6-------------------------------1-------P---1-----------------|-3-|
E:-------------0-----------P---1---------------------------P---0-|---|
(Repeat chord pattern for the verses until the chord strumming part)

Chord strumming part:

F A7 +
|-------------------------------|-------------------------------|
|-------------------------------|-------------------------------|
|-------------------------------|6---6---6----------------------|
|-------------------------------|--------------5-----5---5------|
|3---3---------3---x-3---3---0--|7---7---7---x-7---x-7---7---7-7|
|1---1---x---x-1---x-1---1---0-0|5---5---5---x-----x-5---5---5-5|
^ ^ ^ ^ ^ ^ ^ ^ ^ ^ ^ ^ ^ ^ ^ ^ ^ ^
Dmin7 . Bbmin7 .
|-------------------------------|------------------------------|
|--------6----------------------|--------2---------------2-----|
|5---5---------------5---5------|--------1---------------1-----|
|7---7-------x-7---x-7---7------|3---3-------x-3---x-3---------|
|5---5---------------5---5---0-0|1---1-------x-1---x-1---------|
|-------------------------------|----------------------------0-|
^ ^ ^ ^ ^ ^ ^ ^ ^ ^ ^ ^ ^ ^ ^ ^ ^ ^
Chorus:

Am7 . Dmin7 Gm . C7add9
|---------------------5---------|-----3---------------3---------|
|-----5---T---6---------6-T-----|-3---3---T---3---------3-T-x---|
|-----5-x-A---5-----------A-----|-3-----x-A---3-----------A-x---|
|-------------------------------|-------------------------------|
|---------P---5-----------------|---------P---3---3-------------|
|-5-----------------------P---0-|-3-----------------------P---0-|

Am7 Dmin7 Gm C7add9
|---------------------5---------|-----3---------------3---------|
|-5-------T---6---------6-T-x---|-3---3---T---3---------3-T-----|
|-5-------A---5-----------A-x---|-3-------A---3-----------A-----|
|-------------------------------|-------------------------------|
|---------P---5---5-------P-----|---------P---3---3-------------|
|-5---------------------------0-|-3-----------------------P---0-|
[ Tab from: http://www.guitartabs.cc/tabs/m/mymp/especially_for_you_tab_ver_9.html ]
Am Dmin7 Gm C7susadd9
|-----5---------------5---------|-----3----------------------------|
|-5---5---T---6---------6-T-----|-3---3---T---3--------------T-----|
|-5-----x-A---5-----------A-----|-3-------A---3-------[17]---A-----|
|-------------------------------|-------------3--------------------|
|---------P---5---5-------P-----|---------P---3--------------------|
|-5---------------------------0-|-3--------------------------P---0-|

0 reply
vanbeh wrote on June 1 2012, 08:02 am

FMaj7 .
|-------------------------------|---|
|-1-------T---1-------1---T-----|-3-|
|-2-------A---2-------2---A-----|-3-|
|-------------------------------|---|
|-------------------------------|-3-|
|-1-------P---1-------1---P---0-|---|

Solo:
. .
E:|--------------------------------------------------|
B:|--------------------------------------------------|
G:|---7-9/10---9-7--/9---7\5-------------------------|
D:|-8------------------------------------------------|
A:|--------------------------------------------------|
E:|--------------------------------------------------|
| C7susadd9 FMaj7 . |
E:|--------3-------------|-0-----0---------0---------|
B:|T---3-------3---------|-1-----1-T---1-------1---T-|
G:|A---3---------3-------|-2-----2-A---2---------2-A-|
D:|----------------------|---------------------------|
A:|P---3-----------------|---------------------------|
E:|--------------------0-|-1-------P---1-----------P-|
.
|----------------------------2--/5--\3--------------------------------|
|------3-----3--/4---3---4--------------------------------------------|
|----2-----------------------------------------------------------x-5p0|
|0-4------------------------------------------------------------------|
|---------------------------------------------------------------------|
|---------------------------------------------------------------------|
| D7 Gmin |
|------------------------------------|-------3-T-------3--------------|
|------3-----x-T---3---------3-T-x---|-3-----3-A---3-------3---T-x----|
|------5-----x-A---5---------5-A-x---|-3-----------3---------3-A-x----|
|----------x-------4-----------------|--------------------------------|
|------5-------P---5-------5---P-----|--------------------------------|
|--0-------------------------------0-|-3-------P---3-----------P---0--|

|------------------------------------------|
|------------------------------------------|
|5-----5---------5--/7\5--/3----\2---------|
|------------------------------------------|
|------------------------------------------|
|------------------------------------------|
|C7add9 F |
|----------------3-------------|-----1---T-|
|3-----3-T---3-------3---T-x---|-----1---A-|
|3-----3-A---3---------3-A-x---|-----------|
|------------------------------|-----------|
|3-------P---3-----------P-----|-----------|
|----------------------------0-|-1-------P-|

Outro:

FMaj7 .
|-------------------------------------------------3---------------0-|
|-1-------T---1-------1---T-------3-------T-----------3---T-------1-|
|-2-------A---2-------2---A-------3-------A---3-----------A-------2-|
|---------------------------------3-----------3---------------------|
|---------------------------------3-------P---3-----------P-------3-|
|-1-------P---1---1-------P---0-------------------------------0---1-|
^ ^
Lyrics:
I.Verse1
Especially for you I wanna let you know what I was going through
all the time we were apart I thought of you, you were in my heart
my love never changed I still feel the same
Verse2
Especially for you I wanna tell you I was feeling that way too
and if dreams were wings you know I would have flown to you
to be where you are, no matter how far and now that I'm next to you

No more dreaming about tomorrow, forget the loneliness and the sorrow
I've got to say it's all because of you and now we're back together,
together I wanna show you my heart is oh so true and all the love I have
is especially for you.
II.
Especially for you I wanna tell you, you mean the world to me
how I'm certain that our love was meant to be, you changed my life
you showed me the way and now that I'm next to you

I've waited long enough to find you, I wanna throw all the hurt behind
you and I wanna bring out all the love inside you oh and now we're back
together, together I wanna show you my heart is oh so true and all the
love I have is especially for you.

I want to post or [tab]
guest
You may want to rate the tab now too:
select rating
Please do not post tabs as comments. Select "correction" instead!