Oops, an error
Loading. Please wait.

Versions Tab

by Mymp
3,480 views 3 this week
5 commentsread comments
1 2 3 4 5
excellent!
x 12
add to favorites launch autoscroll
font size
0
reset
Autoscroll
+/-
esc
set tempo
stop
Contributor
WARNING: You are trying to view
                                    content from Ultimate-Guitar.com
                                    in an unauthorized application,
                                    which is prohibited.

                                    Please use an official Ultimate
                                    Guitar Tabs application for iPhone,
                                    iPad or Android to access legitimate
                                    chords, guitar, bass, and drum tabs
                                    from Ultimate-Guitar.com database.

                                    Type "ultimate guitar tabs" in Apple
                                    App Store's or Android Market's
                                    search to find the application.
All tabbed by: 
Walter Michael De la CRuz - SLU BAguio City - 09224012464
         (Michaelfdelacruz2yahoo.com) or (Walterfdelacruz@yahoo.com)
         

Im only 17 years old.

This is a tab for the entire Version Album of MYMP, some are chords. 
If you want to post this somewhere, or use parts 
of it, just keep my name and e-mail on it and you can do whatever
you want.

I am extremely confident about the accuracy of each tab, and I tried
to make each one as easy to understand as possible.  But given the
structure of some of the songs, that was a little difficult.  Just
pay close attention to the "Order" section of each tab and you'll be
fine.

For most of the tabs, the strumming and plucking are incluede. so
that you can understand it easily

1.  True colors
2.  Especially for you
3.  No ordinary love
4.  Constantly
5.  The closer i get to you
6.  Whenever wherever whatever
7.  For all of my life
8.  Eternal Flame
9.  Say you love me
10. Love moves
11. Beauty and madness
12. At your Best




1. True Colors

E|------------------3-------3----3---------------------------|
B|-------------1---------------------------------------------|
G|---------------2----2-------0----0-------------------------|
D|-----------------------------------------------------------|
A|-------------0---------------------------------------------|
E|--------------------------3--------------------------------|
  You with the s---a--d    e—-y—e--s    

E|--3------------------0----------------------3--------------|
B|-------3----------------1-----------------1----(1)--t------|
G|---------------------------0------------2-----------a------|
D|--------------------------------------3-------------p------|
A|--3-------------3------------------------------------------|
E|-----------------------------------------------------------|
   Don't be  dis--cou---rage through I realize

E|------------0------------3-----------------0--------------|
B|------------1----t---------3-t-------------1--t-----------|
G|------------2----a-----------a-------------0--a-----------|
D|-----------------p-----------p----------------p-----------|
A|------0---------------------------------3-----------------|
E|--------------------3-------------------------------------|
  It's Hard  to  take cou-rage     in  a  world

E|-------------------------3---------------3----------------|
B|------------6------------3---t---------------1------------|
G|------------5----------------a----------------------------|
D|------------7----------------p------3---------------------|
A|--------5----------3--------------------------------------|
E|----------------------------------------------------------|
  Full of people ,  You   can lose   sight of it all

E|--------------0-----------3--------------------------------|
B|--------------1--t----------3--t---------------------------|
G|--------------2--a-------------a---------------------------|
D|-----------------p-------------p---------------------------|
A|---------0-------------------------------------------------|
E|----------------------3------------------------------------|
  And the darkness      in-side you  


E|---------------------0-------------------------------------|
B|----------1-1--t-------1--t--------------------------------|
G|---------------a----------a--------------------------------|
D|----------3-3--p----------p--------------------------------|
A|-------------------3---------------------------------------|
E|-----------------------------------------------------------|
   Make me feel so  s-m-a-ll

Chorus:


E|----------------------------0------------------------------|
B|------------------------t-----1--t--------1-1--------1-----|
G|------------------2--2--a--------a--------2-2--t-----2-----|
D|------------------3--3--p--------p--------0-0--a-----0-----|
A|------------------3--3----3--------------------p-----------|
E|------------------1--1--------------------3-3--------3-----|
  But I'll see your True   colors        shining    through


E|--------------------------0--------------------------------|
B|--------------------t-------1---1--1---t--1--1---1---------|
G|--------------2--2--a-----------2--2---a--2--2---2---------|
D|--------------3--3--p-----------3--3---p--3--3---3---------|
A|--------------3--3-----3--------3--3------3--3---3---------|
E|--------------1--1--------------1--1------1--1---1---------|

   I'll see you true     colors  that's why I love you


E|------------------0-------0---0---------1------------------|
B|--------------------1-----0---0-----------0-t--------------|
G|----2----2--t----------t--0---0-------------a--------------|
D|----3----3--a----------a--2---2-------------p--------------|
A|----3----3--p--3-------p--2---2------0---------------------|
E|----1----1----------------0---0----------------------------|
  So don't Be   afraid  to let them    s—h—o-w    your

E|-------------0---------------0---------0------------------|
B|-------t-------1---------------1-------1------------------|
G|-2--2--a------------2-2-t--------------2------------------|
D|-3--3--p------------3-3-a--------------3------------------|
A|-3--3-----3---------3-3-p--3-----------0------------------|
E|-1--1---------------1-1----------------0------------------|
   True     colors,  true  colors   so beautiful 

VERSE 2: the same as verse 1
Show me a smile then,
Don't be unhappy, can't remember
When I last saw you laughing
If this world makes you crazy
And you've taken all you can bear
You call me up
Because you know I'll be there

CHORUS
INTERLUDE
VERSE 3:
Oooo....
(whispered) 
can't remember
When I last saw you laughing
(sung)
If this world makes you crazy
And you've taken all you can bear
You call me up
Because you know I'll be there


2. Especially for you

Intro:                   Verse:

                                       F      
E|-----------------------*-------0-0-------0---------|
B|--t-------3--t--3------*-----------t--1----1--t----|
G|--a-------3--a--3------*-----------a----------a----|
D|--p----------p---------*-----------p----------p----|
A|----harm3-3-----3------*---------------------------|
E|-----------------------*-------1------1------------|
                 Especially for you          

                   Dm                             Bb
E|--------------------------------------*-------3--------3----------|
B|---------3---3---------3--------3-----*----3-----t--3----3--t-----|
G|-----------------t--------------------*----------a----------a-----|
D|-----------------a--------------------*----------p----------p-----|
A|---------5-------p-----5---5----------*----1--------1-------------|
E|--------------------------------------*---------------------------|
  I wanna let you know what I was going      Through


                        C9
E|------------------------------3--------------------------------------|
B|-----------3--3---t----3-----------t---------------------------------|
G|------------------a----------------a---------------------------------|
D|------------------p----------------p---------------------------------|
A|-----------3-----------3---3-----------------------------------------|
E|---------------------------------------------------------------------|
   All the time we were apart I thought of


      F		     Am             Dm7              C            Bb	
E|-----1-----*----------------------5-5---------------------------------|
B|-----1--t--*---------5----t-------6-6----------------5--t-------------|
G|-----2--a--*---------5----a-------5-5----------------5--a---3--3--3---|
D|-----3--p--*---------7----p-------7-7----------------5--p---3--3--3---|
A|-----------*---------7----------5----------------3----------1--1--1---|
E|---1-------*-----5----------------------------------------------------|
     You ,        You were in my heart       My love never change


           Bb               C9                  F
E|---------------------------------------------0-0-------0-------------|
B|-----------------------3------3------------------t--1----1--t--------|
G|-------3---3---3-------3---t--3------------------a----------a--------|
D|-------3---3---3-----------a---------------------p----------p--------|
A|-------1---1---1-------3---p--3--------------------------------------|
E|---------------------------------------------1------1----------------|
      I still feel the same     Especially for you


                   Dm                             Bb
E|--------------------------------------*-------3--------3----------|
B|---------3---3---------3--------3-----*----3-----t--3----3--t-----|
G|-----------------t--------------------*----------a----------a-----|
D|-----------------a--------------------*----------p----------p-----|
A|---------5-------p-----5---5----------*----1--------1-------------|
E|--------------------------------------*---------------------------|
  I wanna tell you I was feeling that way    too


                        C9
E|-----------------------------------3---------------------------------|
B|-----------3--3---t------3------------------t------------------------|
G|------------------a-------------------------a------------------------|
D|------------------p-------------------------p------------------------|
A|-----------3-------------3-----3-------------------------------------|
E|---------------------------------------------------------------------|
 And if dreams were wings, you know I have flown to 


      F		     Am             Dm7              C            Bb	
E|-----1-----*----------------------5-5---------------------------------|
B|-----1--t--*---------5----t-------6-6----------------5--t-------------|
G|-----2--a--*---------5----a-------5-5----------------5--a-----3--3----|
D|-----3--p--*---------7----p-------7-7----------------5--p-----3--3----|
A|-----------*---------7----------5----------------3------------1--1----|
E|---1-------*-----5----------------------------------------------------|
   You            to be where  you are            no matter how far


E|---------------------------------------------------------------------|
B|---------------------------------------------------------------------|
G|----3----3------3--------3-------------------------------------------|
D|----3----3------3--------3-------------------------------------------|
A|----1----1------1--------1-------------------------------------------|
E|---------------------------------------------------------------------|
   And now that I'm next to you


Refrain: (Pakinggan u ung strumming ni chin dito para makuha nyo)


             F
E|---------------------------------------------------------------------|
B|---------------------------------------------------------------------|
G|--2---2--2----2-----2----2----2--------------------------------------|
D|--3---3--3----3-----3----3----3--------------------------------------|
A|--3---3--3----3-----3----3----3--------------------------------------|
E|--1---1--1----1-----1----1----1--------------------------------------|
    No more dreaming about tomorrow


             A7
E|---------------------------------------------------------------------|
B|---------------------------------------------------------------------|
G|---6---6----6-------6-----6-----6---6--------------------------------|
D|---5---5----5-------5-----5-----5---5--------------------------------|
A|---7---7----7-------7-----7-----7---7--------------------------------|
E|---5---5----5-------5-----5-----5---5--------------------------------|
   Forget the loneliness and the sorrow



          Dm7                           Bb
E|---5--5--5---5---5--5--5---5---5--*----------------------------------|
B|---6--6--6---6---6--6--6---6---6--*----------------------------------|
G|---5--5--5---5---5--5--5---5---5--*---7—7---7---7--7--7----7---------|
D|---7--7--7---7---7--7--7---7---7--*---8-8---8---8--8--8----8---------|
A|---5--5--5---5---5--5--5---5---5--*---8-8---8---8--8--8----8---------|
E|----------------------------------*---6-6---6---6--6--6----6---------|
    I've got to say its all because of  you and now we're back  



Chorus: (this part is a little tricky with tapping and dapat mabilis kamay nyo)


      Am          Dm7         Gm         C
E|-------5---------5------------3------------3-------------------------|
B|-------5-t-------6--t---------3---t--------3---t---------------------|
G|-------5-a-------5--a---------3---a--------5---a---------------------|
D|---------p-------7--p-------------p------------p---------------------|
A|--------------5-----------------------3------------------------------|
E|----5----------------------3-----------------------------------------|
    Toge -     ther    ,  Toge   -    ther   I wanna   
 


      Am          Dm7                 Gm         C
E|-------5---------5---------------------3---------------3---------------|
B|-------5-t-------6--t------------------3---t-----------3--t------------|
G|-------5-a-------5--a------------------3---a-----------5--a------------|
D|---------p-------7--p----------------------p--------------p------------|
A|--------------5---------------------------------3----------------------|
E|----5-------------------------------3----------------------------------|
      Show      you my heart is       oh   so    true  and all the 


      Am          Dm7                 Gm         C
E|-------5---------5---------------------3------------3-------------------|
B|-------5-t-------6--t------------------3---t--------3---t---1--t-1--1-t-|
G|-------5-a-------5--a------------------3---a--------5---a------a------a-|
D|---------p-------7--p----------------------p------------p------p------p-|
A|--------------5---------------------------------3-----------------------|
E|----5-------------------------------3-----------------------1----1-1----|
     Love      I had          is       especially     for you


Verse 2 (just like verse 1, diskarte u n lng po.)

E|---------------------------------------------------------------------|
B|--3--t--3------------------------------------------------------------|
G|--3--a--3------------------------------------------------------------|
D|-----p---------------------------------------------------------------|
A|--3-----3------------------------------------------------------------|
E|---------------------------------------------------------------------|
         Especially for you 


I wanna tell you, you mean all the world to me
How I'm certain that our love was meant to be
You changed my life
You showed me the way
+And now that I'm next to you


Refrain 2:(just like refrain)
ive waited long enough to find you
I wanna put all the hurt behind you Oh,
And I wanna bring out all the love inside you,Oh

Repeat Chorus

Adlib:

E---------------------------------------------------------|
B--------------------------------------------7-8/10-8-----|
G---7-9-9s10-9-7-7h9-7s5-------5-7-7-7-8-7-8--------------|
D--7-------------------------7----------------------------|
A--------------------------5------------------------------|
E---------------------------------------------------------|

E---------------------------------------------------------|
B---------------------------------------------------------|
G---------------------------------------------------------|
D--10p8-10p8-10-8-10-10/12-10-8-7-------------------------|
A---------------------------------------------------------|
E---------------------------------------------------------|

repeat refrain
repeat chorus

Ending:
    
     C9     F
E|-------------1--------------------------------------------------------|
B|--3--t--3----1--------------------------------------------------------|
G|--3--a--3----2--------------------------------------------------------|
D|-----p-------3--------------------------------------------------------|
A|--3-----3----3--------------------------------------------------------|
E|-------------1--------------------------------------------------------|


3. No ordinary Love

Intro:

E|-5---5-----------------------------------|
B|------------10---------------------------|
G|---7---5---------------------------------|
D|------------------12----12---------------|
A|-5----------9---9-------10---------------|
E|-----------------------------------------|


Verse 1
	   D				   F#m			G
E|-------------------------------------------------------------------------|
B|---------5------------------------------10---------------------7---------|
G|------7------7------------------------9----9-----------------7-----------|
D|---7-------------7-----------------12--------12------------5-------------|
A|-5------------------------------9-----------------------5----------------|
E|-------------------------------------------------------------------------|

       This could have been just   another 	day

E|--------------|
B|--------5-----|
G|----7---------|
D|--------------|
A|--------------|
E|--------------|

But instead we're standing here


   	    D				    F#m     		  G
E|------------------------------------------------------------------------|
B|---------5------------------------------10---------------------7--------|
G|------7------7------------------------9----9-----------------7----------|
D|---7-------------7-----------------12--------12------------5------------|
A|-5-------------------------------9-----------------------5--------------|
E|------------------------------------------------------------------------|
	  No   need    for           words, it's all been        said


E|--------------|
B|--------5-----|
G|----7---------|
D|--------------|
A|--------------|
E|--------------|

I was alone on this journey

Refrain:

      F#m	     Bm
E|-------2-------------2--------------------|
B|---------2------------3-------------------|
G|-----------2-------2----2-----------------|
D|-----4-----------4------------------------|
A|---4-----------2--------------------------|
E|-2----------------------------------------|

   I was alone on this journey

      F#m	     Bm
E|-------2---------------2------------------|
B|---------2---------------3----------------|
G|-----------2---------2------2-------------|
D|-----4-------------4----------------------|
A|---4-------------2------------------------|
E|-2----------------------------------------|
 You came along to comfort me

      Em                 A
E|----------0-----------0--------------------------------------------------|
B|-------3----3-------3---3---------3-----3--------------------------------|
G|--------------------------------2---2------------------------------------|
D|-----2------------2-----------2------------------------------------------|
A|---2------------2-----------0---------0----------------------------------|
E|-0------------0----------------------------------------------------------|
 Everything I want in life is right here

Chorus:
     D                 F#m        G     A        D        G    A     D
E|------------------------------------------------------------------------|
B|-------5-------------10--------3-----5-------5----------3-----5------5--|
G|-----7---7----------9--9-------4-----6------7-7---------4-----6-----7-7-|
D|---7------7-------12----12-----------------7---7-------------------7---7|
A|-5---------------9------------5-----7-----5------------5-----7----5-----|
E|----------------------------3-----5-------------------3-----5-----------|
 This is not your ordinary no ordinary love I was not prepared enough

     G            A
E|------------------------------------------------------------------------|
B|--------3--------------3------------------------------------------------|
G|----------4----------2---2----------------------------------------------|
D|------5-----5------2-------2--------------------------------------------|
A|----5------------0------------------------------------------------------|
E|--3---------------------------------------------------------------------
     to fall so deep in love

D 		  F#m	      G   A 	   D
This is not your ordinary  no ordinary love
         G        A            D
You were the first to touch my heart
         G
Made everything right again
               A
with your extraordinary love

Verse 2: (do Verse 1 tab)
I get so weak
when you look at me
I get lost inside your eyes
sometimes the magic is hard to believe
but you're here before my weary eyes
you brought joy to my world
set me so free
I want you to understand
you are every breath that I breathe

Bridge:
D                                  A
From the very first time that we kissed

I knew that I just couldn't let you go at all
D                           A
From this day on, remember this:
That you're the only one that I adore
F#m        Bm          F#m  Bm
Can't we make this last forever
Em
This can't be a dream
            Asus
cause it feels so good to me


4.Constantly


Legend:
+ (Harmonic)

Intro:


E|------------3--*-------3--*---3--3---3--3-------3---------1---------1----|
B|------------5--*-------5--*---3--3---3--3-------3---t--1--1---------1-t--|
G|------------4--*-------4--*---4--4---4--4-------4---a-----------------a--|
D|---------------*----------*-------------------------p-----------------p--|
A|--3+--3+--3----*----------*---2------2------2+--2------1-----------------|
E|---------------*--3-3-----*----------------------------------1----1------|


E|-------0------0----------------------|
B|---1------t---1----------------------|
G|----------a--------------------------|
D|----------p--------------------------|
A|---0---------------------------------|
E|--------------3----------------------|

Verse 1:

E|-----3-----------------------------------------------------------|
B|--0------0---------------------3-----t---------------------------|
G|-----------------------------0-------a---------------------------|
D|-------------------------------------p---------------------------|
A|-----------------0---2-------------------------------------------|
E|--3---------3-------------3--------------------------------------|
    I       knew  it  was there          though I tried 

E|-----------3-----------------------------------------------------|
B|--------------------------------------1--------1-----------------|
G|------4-------------------------------2---t----2-----t-----------|
D|--------------------------------------3---a----3-----a-----------|
A|------3-----------------------------------p----------p-----------|
E|--------------------------------------1--------1-----------------|
    To hide it    but the feeling just keep on shining 

E|-----3-----------------------------------------------------------|
B|--0------0---------------------3-----t---------------------------|
G|-----------------------------0-------a---------------------------|
D|-------------------------------------p---------------------------|
A|-----------------0---2-------------------------------------------|
E|--3---------3-------------3--------------------------------------|
  through   Haven't know you that long 

E|---------------3-------------------------------------------------|
B|--------------------------------------1--------1-----------------|
G|------------4-------------------------2---t----2-----t-----------|
D|--------------------------------------3---a----3-----a-----------|
A|------------3-----------------------------p----------p-----------|
E|--------------------------------------1--------1-----------------|
So I try to deny it  But the feeling was much too much too strong

Refrain:
E|----------------------------------------------------------------|
B|----8-----8-----------6---8---8---8-----------------------------|
G|----9-----9-----------7---7---7---7-----------------------------|
D|----9-----9-----------8---8---8---8-----------------------------|
A|--7-----7-------------6---6---6---6-----------------------------|
E|----------------------------------------------------------------|
         Could this be love    Deep down 

E|--------0-------------------------3--------------3--------------|
B|--------2-----------------3-------3--------------1--------------|
G|--------0-----------------2----------------------2--------------|
D|--------1----------------------------------------0--------------|
A|--------0-----------------2-------3-----------------------------|
E|----------------------------------------------------------------|
        Inside Tearing me apart  I feel it in my heart


Chorus:
E|------------3--*-------3--*---3--3---3--3-------3---------1---------1----|
B|------------5--*-------5--*---3--3---3--3-------3---t--1--1---------1-t--|
G|------------4--*-------4--*---4--4---4--4-------4---a-----------------a--|
D|---------------*----------*-------------------------p-----------------p--|
A|----------3----*----------*---2------2------2+--2------1-----------------|
E|---------------*--3-3-----*----------------------------------1----1------|
   Constantly,     you're on my mind    Thinking about you all 


E|---0--0--0-0-----------------------|
B|---1--1--1-1-----------------------|
G|-----------------------------------|
D|-----------------------------------|
A|---0-------0-----------------------|
E|-----------------------------------|
    the time

E|------------3--*-------3--*---3--3---3--3-------3---------1---------1----|
B|------------5--*-------5--*---3--3---3--3-------3---t--1--1---------1-t--|
G|------------4--*-------4--*---4--4---4--4-------4---a-----------------a--|
D|---------------*----------*-------------------------p-----------------p--|
A|----------3----*----------*---2------2------2+--2------1-----------------|
E|---------------*--3-3-----*----------------------------------1---1-------|
I can't sleep no matter what I do---------              I just keep on 


E|---0--0--0-0-----------------------|
B|---1--1--1-1-----------------------|
G|-----------------------------------|
D|-----------------------------------|
A|---0-------0-----------------------|
E|-----------------------------------|
  thinkin bout you


Verse 2 The same in Verse 1

Why do I feel this way
When I know you have someone
That you're seeing each and every day
Should I play this game
Of just being your friend
When I know that's not where I want it to end


Refrain 2:The same in refrain

How could this be wrong
When the feeling's so strong
Tearing me apart
I feel it in my heart

Chorus:

E|------------3--*-------3--*---3--3---3--3-------3---------1---------1----|
B|------------5--*-------5--*---3--3---3--3-------3---t--1--1---------1-t--|
G|------------4--*-------4--*---4--4---4--4-------4---a-----------------a--|
D|---------------*----------*-------------------------p-----------------p--|
A|----------3----*----------*---2------2------2+--2------1-----------------|
E|---------------*--3-3-----*----------------------------------1----1------|
   Constantly,     you're on my mind    Thinking about you all 


E|---0--0--0-0-----------------------|
B|---1--1--1-1-----------------------|
G|-----------------------------------|
D|-----------------------------------|
A|---0-------0-----------------------|
E|-----------------------------------|
    the time

E|------------3--*-------3--*---3--3---3--3-------3---------1---------1----|
B|------------5--*-------5--*---3--3---3--3-------3---t--1--1---------1-t--|
G|------------4--*-------4--*---4--4---4--4-------4---a-----------------a--|
D|---------------*----------*-------------------------p-----------------p--|
A|----------3----*----------*---2------2------2+--2------1-----------------|
E|---------------*--3-3-----*----------------------------------1---1-------|
I can't sleep no matter what I do---------              I just keep on 


E|---0--0--0-0-----------------------|
B|---1--1--1-1-----------------------|
G|-----------------------------------|
D|-----------------------------------|
A|---0-------0-----------------------|
E|-----------------------------------|
  thinkin bout you



Bridge:


E|----6---6----6----6-----6-------------3-------3----------------------|
B|----8---8----8----8-----8-------------3-------3----------------------|
G|----7---7----7----7-----7-------------4-------4----------------------|
D|----8---8----8----8-----8--------------------------------------------|
A|----6---6----6----6-----6--------------------------------------------|
E|------------------------------------3-----3-3------------------------|
      No I don't want to start no trouble

E|----3---------------1----------------3-------3----------------------|
B|----4---------------1----------------3-------3----------------------|
G|----5---------------2----------------4-------4----------------------|
D|----5---------------3-----------------------------------------------|
A|----3---------------3-----------------------------------------------|
E|--------------------1--------------3----3--3------------------------|
      Between you and I and your lover


E|----6---6----6----6-----6-------------3-------3----------------------|
B|----8---8----8----8-----8-------------3-------3----------------------|
G|----7---7----7----7-----7-------------4-------4----------------------|
D|----8---8----8----8-----8--------------------------------------------|
A|----6---6----6----6-----6--------------------------------------------|
E|------------------------------------3-----3-3------------------------|
    But I must tell you what I'm going through

E|--------0---------------------------3----------------3--------------|
B|--------2-----------------3---------3----------------1--------------|
G|--------0-----------------2--------------------------2--------------|
D|--------1--------------------------------------------0--------------|
A|--------0-----------------2---------3-------------------------------|
E|--------------------------------------------------------------------|
 Every time you walk by I see love in your eyes

(Adlib)
(Chorus)

5. CLoser i get to you

Intro:
E|---4h5p4----------------7--5--4--------------------|
B|----------5---------B------------5s75--------------|
G|--------------6s9---a------------------------------|
D|--------------------s------------------------------|
A|-0------------------s------------------------------|
E|---------------------------------------------------|

Verse1:
      AM7                   DM7   C#m7    AM7
E|---------------------------------------------------|
B|--------5---5----------------5-----4------5--------|
G|---6----------------------6--------5------6--------|
D|------7--------------------------6------7----------|
A|---0------0---------------5-----4------0-----------|
E|---------------------------------------------------|
       The closer i get to   you

   AM7                   DM7   C#m7    AM7
E|---------------------------------------------------|
B|--------5---5----------------5-----4------5--------|
G|---6----------------------6--------5------6--------|
D|------7--------------------------6------7----------|
A|---0------0---------------5-----4------0-----------|
E|---------------------------------------------------|
     The more you make me   see

    AM7                   DM7   C#m7    AM7
E|---------------------------------------------------|
B|--------5---5----------------5-----4------5--------|
G|---6----------------------6--------5------6--------|
D|------7--------------------------6------7----------|
A|---0------0---------------5-----4------0-----------|
E|---------------------------------------------------|
      By giving me all you got (tell me more)

      AM7                   DM7   C#m7    AM7
E|---------------------------------------------------|
B|--------5---5----------------5-----4------5--------|
G|---6----------------------6--------5------6--------|
D|------7--------------------------6------7----------|
A|---0------0---------------5-----4------0-----------|
E|---------------------------------------------------|
     Your love has captured me

Chorus:
DM7	      C#m7
Over and over again
             Bm7-AM7         DM7
I tried to tell myself that we
       C#m7    Bm7         AM7
Could never be more than friends
			     DM7      C#m7
But all the while, inside , i knew it was real
	   Bm7-AM7
The way you make me feel

Verse 2( AM7-DM7-C#m7-AM7)
Lyin' here next to you
Time just seems to fly
Needing you more and more (more and more)
Let's give love a try

(DM7-C#m7-Em-A7)
Sweeter and sweeter love grows
And heaven's there for those
Who fool the tricks of time
With hearts of love will find
True love in a special way

(AM7-DM7-C#m7-AM7)
Come a little closer so that we can see
Into the eyes of love
Just a little closer let me speak to you
I want to softly tell you something
Come a little closer let me whisper in your ear
Cuz i wanna tell you something
Move on in real close so we can celebrate
The way we feel a bout each other's loving


6. Whenever, wherever, whatever

Intro:

           AM7                      F#m
E|-----------------------------------2-----------|
B|------5--7---------------------2--------2--t---|
G|----6--6---6-6-6h7-6--------2----2---2-----a---|
D|---7---------------------4-----------------p---|
A|-0---------------------------------------------|
E|-----------------------2-----------------------|

   Bm       -    E                       AM7
E|-------2-2—2h4—4s5--5-----4--2--0-*----------------|
B|----------------------------------*----5-5-----5---|
G|-----2----------------------------*---6-6-----6----|
D|---4------------------------------*--7-------7-----|
A|-2------------------7---7---------*-0-------0------|
E|----------------------------------*----------------|


Verse 1:

            AM7                           F#m
E|---------------------------------*------------------------|
B|--------5-------7---------5------*---------10------10-----|
G|------6------6-------6-----------*-------9------9---------|
D|----7----------------------------*----11------------------|
A|-0-------------------------------*-9----------------------|
E|---------------------------------*------------------------|
         Lead me on girl if you must  Take my heart and my love


    Bm                E
E|------------*--------------------------------------|
B|----------3-*-------------7-----------5---7---5----|
G|-------2----*----------9-----9------6---6---6------|
D|-----4------*-------9-------------7----------------|
A|--2---------*----7--------------0------------------|
E|------------*--------------------------------------|
    Take of me  all that you want



       F#m                     F#m
E|--------------2-------------------2---------------------|
B|---------2-------2----------2---------2-----------------|
G|-------2---2--------------2---2-------------------------|
D|-----4------------------4-------------------------------|
A|--------------------------------------------------------|
E|--2-------------------2---------------------------------|
  And if there's a thing that you need

        AM7
E|----------------4----4----5-----(4)---------------------|
B|--------5-----------------------------------------------|
G|------6---6---------------------------------------------|
D|----7---------------------------------------------------|
A|--0-------------0----0----0-----------------------------|
E|--------------------------------------------------------|
   I'd give you breath that I breathe

      Bm                   E
E|-------------2-------------------------0--------------------|
B|----------3---------------------0---------------------------|
G|-------4---------------------------1------------------------|
D|-----4-----------------------2------------------------------|
A|---2----------------------2---------------------------------|
E|-----------------------0------------------------------------|
 'N if ever you yearn for the love in me

Coda:
       DM7        C#m        Bm         AM7
E|-----------------------------2----------------4--4--5—(4)---|
B|------5---------5--------3-----3----------5-----------------|
G|----------------------------------------6--6----------------|
D|--------------------------------------7---------------------|
A|------5---------4--------2-----------0--------0--0--0-------|
E|------------------------------------------------------------|
    Whenever   Wherever  Whatever        baby

Verse 2:

          AM7                                  F#m
E|---------------------------------*------------------------|
B|--------5-------7---------5------*---------10------10-----|
G|------6------6-------6-----------*-------9------9---------|
D|----7----------------------------*----11------------------|
A|-0-------------------------------*-9----------------------|
E|---------------------------------*------------------------|
   Wish I knew if I could          Be the one that you would


    Bm                E
E|------------*--------------------------------------------|
B|----------3-*-------------7------------5---7---5---------|
G|-------2----*----------9-----9-------6---6---6-----------|
D|-----4------*-------9--------------7---------------------|
A|--2---------*----7---------------0-----------------------|
E|------------*--------------------------------------------|
   love forever and a day baby



       F#m                     F#m
E|--------------2-------------------2---------------------|
B|---------2-------2----------2---------2-----------------|
G|-------2---2--------------2---2-------------------------|
D|-----4------------------4-------------------------------|
A|--------------------------------------------------------|
E|--2-------------------2---------------------------------|
  And if there's a thing that you need


        AM7
E|----------------4----4----5-----(4)---------------------|
B|--------5-----------------------------------------------|
G|------6---6---------------------------------------------|
D|----7---------------------------------------------------|
A|--0-------------0----0----0-----------------------------|
E|--------------------------------------------------------|
    For you 'n your blood I would bleed


              Bm                   E
E|-------------2-------------------------0--------------------|
B|----------3---------------------0---------------------------|
G|-------4---------------------------1------------------------|
D|-----4-----------------------2------------------------------|
A|---2----------------------2---------------------------------|
E|-----------------------0------------------------------------|
 'N if ever you yearn for the love in me

Coda:
       DM7         C#m        Bm           AM7
E|-----------------------------2----------------4--4--5—(4)---|
B|------5---------5--------3-----3----------5-----------------|
G|----------------------------------------6--6----------------|
D|--------------------------------------7---------------------|
A|------5---------4--------2-----------0--------0--0--0-------|
E|------------------------------------------------------------|
    Whenever Wherever Whatever      baby


7. Eternal Flame

Note         : You may use Plucking or strumming whatever you like

Intro: G-C-G-C

E|-------------*------------*-----------*------------------|
B|--3-----3----*--3-----3---*--3----3---*--3—5p3-----------|
G|-------------*------------*-----------*--------4---------|
D|-----5-----5-*-----5----5-*-----5---5-*------------------|
A|-------------*--3---------*-----------*--3---------------|
E|--3----------*------------*--3--------*------------------|

Verse1:
   G           Em           C	     D
E|--------*----------*---------------*---------3--------|
B|-3---3--*---3---3--*-3-----3-------*---3-------0------|
G|--------*----------*---------------*------------------|
D|---5--5-*-----5--5-*----5----5-----*------------------|
A|--------*----------*-3-------------*---5--5-----------|
E|-3------*---0------*---------------*------------------|
  Close your  eyes,   give me your hand darling.

  
E|--------*----------*-------------------*---------3--------|
B|-3---3--*---3---3--*-----3-----3-------*---3-------0------|
G|--------*----------*-------------------*------------------|
D|---5--5-*-----5--5-*--------5----5-----*------------------|
A|--------*----------*-----3-------------*---5--5-----------|
E|-3------*---0------*-------------------*------------------|
   Do you    feel my heart beating,         do you understand?

    Em      B7     Em       A7    D    Bm       Am
E|--------*-------*--------*-----------2----------------0--------0--------|
B|---3--3-*--0--0-*--3---3-*-2---2----3-----3---------1---1-----1--1------|
G|--------*-------*--------*---0-----2-----2---------2-----2---2----2-----|
D|--------*----1--*--------*--------0-----4---------2---------2-----------|
A|----2---*--2----*----2---*-0-----------2---------0---------0------------|
E|-0------*-------*--0-----*----------------------------------------------|
    Do you feel the same, am i only dreaming or is this burning an eternal Flame?

Do same as verse 1(use plucking)

G       Em        C              D
I believe it's meant to be darling,

G           Em7          C                      D-Em
I want you when you are sleeping, you belong to me,

                 B7              Em-A7           D       Bm       Am      Am7
Do you feel the same, am i only dreaming or is this burning an eternal Flame?

Chorus

D       Dm    G                      D	-E
Say my name, sun shines through the rain,

	F       G		C                      A7-G
a whole life, so lonely, then you come and ease the pain,

  D               Bm               F    D7
I don't want to loose this feeling oohh

That's it!!! The chords are almost the same to the version of the bangles. The only 
is the Plucking...


8. For all of my life

Intro: E-G#m-A-Am

                       
       E               G#m              A         Am
e|---------0-----*--------0------*----------0------0--------|
B|-------0---0---*------0---0----*--------0----t---2--------|
G|-------------0-*---------------*------2------a---2--------|
D|----2----------*---------------*----2--------P---1--------|
A|---------------*----6-------6--*--0--------------0--------|
E|--0------------*--4------------*--------------------------|



Verse1: E-Am
E|--------0---------------0---------------0-----------------0--------|
B|----------0---------------1---------------0------------------1-----|
G|------------1---------------2---------------1-------------------2--|
D|------2--------------2----------------2-----------------2----------|
A|----2---------------2----------------2----------------2------------|
E|-0----------------0----------------0----------------0--------------|
  Come and lay here beside me       I'll tell you how i feel


E|--------0---------------0-----------0-----2----0---|
B|----------0---------------1---------0-----2-----0--|
G|------------1---------------2--------------------1-|
D|------2--------------2------------2-----4-----2----|
A|----2---------------2-----------0------2-----2-----|
E|-0----------------0------------------------0-------|
   There's a secret inside me     I'm ready to reveal


Refrain 1:
     A       G#m
E|-----0-------4---|
B|------0-------4--|
G|----2--2---------|
D|---2-------6-----|
A|-0--------6------|
E|---------4-------|
 To have you close, embrace your heart

      C#m        C     F#m         A          Bsus
E|------------------------2----------0----------------------|
B|------5---------4---------2---------0------5---5----5-----|
G|----4---4-------------------2----2---2-------4---4--------|
D|---6-----6----5-------4---------2-------------------------|
A|-4-----------3------4----------0-----------2--------2-----|
E|------------------2---------------------------------------|
With my love over and over These are things that i'll promise, my promise to you

Chorus: The same as the Intro (E-G#m-A-Am) Plucking also

         E                G#m            A        Am
e|---------0-----*--------0------*--------0--------0--------|
B|-------0---0---*------0---0----*----------0--t---2--------|
G|-------------0-*---------------*------2------a---2--------|
D|----2----------*----6-------6--*----2--------P---1--------|
A|---------------*---------------*--0--------------0--------|
E|--0------------*--4------------*--------------------------|


             E                  G#m
For all of my life You are the one
                A               Am
I will love you faithfully forever
          E                  G#m
All of my life You are the one
                    A             Am
I'll give to you my greatest love
              E    G#m7        A     Am
For all of my life oooh oooh yeah yeah

Verse 2: The same as verse 1

Let me lay down beside you
There's something you should know
I pray that you decide too
Open your heart and let me show

Refrain 2: The same as Refrain 1

Enchanted worlds of fairytales
Are wonder land of love
These are things that i'll promise, my promise to you


9. Say you love me

Intro:

     FM7        Em7       Dm7       G      C
E|-------0-*----------------------------*-------------|
B|-----1---*--------8--t------6--t----3-*--3--5-------|
G|---2-----*------7----a------5--a----4-*-------------|
D|-3-------*----9------p------7--p------*-------------|
A|---------*--7-----------5-------------*--3----------|
E|---------*------------------------3---*-------------|

         FM7        Em7       Dm7       G      C
E|-------0-*----------------------------*-------------|
B|-----1---*--------8--t--5h6--t----3---*--3--5-------|
G|---2-----*------7----a-------a----4---*-------------|
D|-3-------*----9------p-------p--------*-------------|
A|---------*--7-----------5-------------*--3----------|
E|---------*----------------------3-----*-------------|

Verse 1:FM7- Em7-Dm7-G-C(The same tab through the whole song)



     FM7        Em7       Dm7       G      C
E|-------0-*----------------------------*-------------|
B|-----1---*--------8--t-------6------3-*--3--5-------|
G|---2-----*------7----a-------5------4-*-------------|
D|-3-------*----9------p-----7----------*-------------|
A|---------*--7-----------5-------------*--3----------|
E|---------*------------------------3---*-------------|



  Don"t you know that I want to be more than just your friend,
¡¡¡¡Holding hands is fine
¡¡¡¡But I have got better things on my mind.
¡¡¡¡You know it could happen
¡¡¡¡If you d only see me in a different night
¡¡¡¡Baby when we find get together
¡¡¡¡You will see that I was right
Chorus: F- Em7-Dm7- G-C
¡¡¡¡Say you love me
¡¡¡¡You know that I be nice
¡¡¡¡If you only say you love me
¡¡¡¡Don't treat me like was ice
¡¡¡¡Please love me
¡¡¡¡I will yours and you will mine
¡¡¡¡If you only say you love me baby(darling)
¡¡¡¡Things would really work out fine

¡¡¡¡Dont you know that I want to be more than just your friend,
¡¡¡¡Holding hands is fine
¡¡¡¡But I have got better things on my mind.
¡¡¡¡You know it could happen
¡¡¡¡If you d only see me in a different nigh
¡¡¡¡Baby when we find get together
¡¡You will see that I was right
Ending: A-B

Use this tab at the Chorus with a little bass..


    FM7        Em7       Dm7       G      C
E|---0-----0-*-----------------------------*-------------|
B|---1-----1-*----8------8-------6--t----3-*--3--5-------|
G|---2-----2-*----7------7-------5--a----4-*-------------|
D|-3---3-3---*----9------9-----7----p------*-------------|
A|-----------*--7----7-7-----5-------------*--3----------|
E|-----------*-------------------------3---*-------------|

Chorus: F- Em7-Dm7- G-C
¡¡¡¡Say you love me
¡¡¡¡You know that I be nice
¡¡¡¡If you only say you love me
¡¡¡¡Don't treat me like was ice
¡¡¡¡Please love me
¡¡¡¡I will yours and you will mine
¡¡¡¡If you only say you love me baby(darling)
¡¡¡¡Things would really work out fine

Ending : A-B


10. Love moves

Intro:

     G#			C#		      F#
E|------------------*-------------------*---------------1----|
B|----------------4-*------------4------*--------------------|
G|----------5--6----*------6-------6--5-*-1----3---3------(3)|
D|-----6------------*----6--------------*--------------------|
A|---6---6----------*--4------4---------*--------------------|
E|-4----------------*-------------------*-2--2--------2------©¦


Verse 1:

   G#		C#			F#
E|-4---*--------------4---------------*---------------|
B|-4---*----------4-------------------*----------2----|
G|-5---*--------6---6-----------------*--------3---3--|
D|-6---*------6-----------------------*-------4-------|
A|-6---*---4--------------------------*-----4---------|
E|-4---*------------------------------*--2------------|

Who'd have thought  this is how the  pieces fit?

     C#			    F#			G#    -     C#	
E|-------4--------------*----------2-------*-----------------------|
B|-----4---4------------*------------2-----*---------4-----4-t-----|
G|----6-----------------*--------3---------*--------5--5--5--a--6--|
D|---6------------------*------4-----------*------6-----6----p¡ª-6--|
A|-4--------------------*----4-------------*----6---------------4--|
E|----------------------*--2---------------*--4--------------------|
  You and I shouldn't  even try making   sense of it


    G#		     C#		   F#	
E|---------4----*------------4---*--------------------------|
B|-----------4--*--------4-------*----------2---------------|
G|-------5------*------6---6-----*--------3--3--------------|
D|-----6--------*-----6----------*------4-------------------|
A|---6----------*---4------------*----4---------------------|
E|-4------------*----------------*--2-----------------------|
  I forgot        how we ever  came this far


      Bbm 		   D#m7
E|----------1---------*-------------6----------------------|
B|-------2-----2------*-------------7----------------------|
G|-----3---------3----*---------6---6----------------------|
D|---3----------------*-------8----------------------------|
A|-1------------------*----6-------------------------------|
E|--------------------*------------------------------------|
   I believe we had     reasons but I

       Fm7                   Bbm7
E|---------8-------------*-----1-----------4--------------|
B|---------9-------------*--2-------1----2----------------|
G|------8--8-------------*--------------------------------|
D|---10------------------*--------------------------------|
A|-8---------------------*--1-------1-1-------------------|
E|-----------------------*--------------------------------|
   don't know what they    are


           D#m          D-C
E|------------------------------------------------------|
B|------------------------------------------------------|
G|-------8-8-8-8-8---------7-5--------------------------|
D|-------8-8-8-8-8---------7-5--------------------------|
A|-------6-6-6-6-6---------5-3--------------------------|
E|------------------------------------------------------|
   So  blame it on my     heart,  oh


Chorus:
 
Chords used:

   F    BbM7   Am   Dm7   Bb  C5    G#   C#  C  Gm
E|-1----1------5-----5----6----3----4----4---0---3----------------|
B|-1----3------5-----6----6----3----4----4---1---3----------------|
G|-2----2------5-----5----7----5----5----6---0---3----------------|
D|-3----3------7-----7----8----5----6----6---2---5----------------|
A|-3----1------7-----5----8----3----6----4---3---5----------------|
E|-1----X------5-----X----6----X----4----X-------3----------------|


   F - C            Gm                
Love moves  in mys/terious ways


       Am           Dm7                Bb       C5
It's  always so surprising when  love appears  over the horizon

     F  -   C                   Gm
I'll love  you for the  rest of my days

      Am             Dm7 
But  still, it's a mystery 

     Am               Dm7
How you ever came to  me

             Bb           Am   Am-Bb     Gm              F    G#-C#
Which only  proves love  moves              in mysterious  ways



Verse 2: The same in Verse 1

Heaven knows love is  just a chance we  take leap of faith
So hold me    close, never ever let me go
cos even though we   think we know   which way the river   flows
That's  not the way love  goes, no.



   F - C            Gm                
Love moves  in mys/terious ways


       Am           Dm7                Bb       C5
It's  always so surprising when  love appears  over the horizon

     F  -   C                   Gm
I'll love  you for the  rest of my days

      Am             Dm7 
But  still, it's a mystery 

     Am               Dm7
How you ever came to  me

             Bb           Am   Am-Bb     Gm              F    G#-C#
Which only  proves love  moves              in mysterious  ways


Adlib:

     G#			C#		F#
E|------------------*-------------------*---------------1----|
B|----------------4-*------------4------*--------------------|
G|----------5--6----*------6-------6--5-*-1----3---3------(3)|
D|-----6------------*----6--------------*--------------------|
A|---6---6----------*--4------4---------*--------------------|
E|-4----------------*-------------------*-2--2--------2------|

       Bbm          F#          G#
E|---------1---1--*--2--1----*-------------------------------|
B|-----2--4---4---*-------2--*--------------4¡ª2-1------------|
G|----------------*----------*--3-3-5--5------------3--1-----|
D|---3------------*----------*-------------------------------|
A|-1--------------*----------*-------------------------------|
E|----------------*--2-------*--4-4-4-----4------------------|


Bridge:

            C#                 F#m7              B
Like the  ticking of a clock  two hearts beat / as one

B   C#      Dm7            G#m            C#    D#
But I'll  never understand  the way it's  done


Repeat chorus 3 Frets higher
(Start with G#)


11. Beauty and madness

Intro:     

          Dm7                   Eb          Dm7         Csus-Cm   Fsus-   F  
e|-----------------------*---6----6----------------------------------------|
B|--------6--------6-----*-6---------6----------6-------6---4----------1---|
G|------5--------5---5---*------8-------------5---5--------------2-2h3----2|
D|----8--------8-------8-*------------------8-------8-----------3---------3|
A|--5--------5-----------*-6----6----6----5-------------3~~~~--3----------3|
E|-----------------------*------------------------------------1-----------1|

Chords:

Dm7 : X5856X
Eb  : X68866
Bb  : X13311
Csus: X35563
Cm  : X35543

Dm7          Eb                
Over there, just beneath the moon,

           Dm7       Csus-Cm    Fsus-F
There's a man with a burden to keep,

Dm7                   Eb
Now sleep will fall, washouts, rags and paperbags

Dm7       Csus-Cm       Fsus-F
Homes and lives passing by.


Chorus

Eb                               Fsus-F
Who will see the beauty in your life

Eb               DM7      Cm7       F       Bb
And who will be there to hear you when you call

Eb                                Fsus-F
Who will see the madness in your life.

        G#                Eb                Dm7
And who will be there to catch you if you fall.

Intro:

Verse 2: the same in verse 1

Dreams run wild, as lovers find their way through the right,
Not a care in the world
And over there, oh the twinkling of the lights, harbour lights
Say goodnight one more time
Repeat Chorus

12. At your best


Chords used:

        G5                 Am7                CM7             D9
  |-----2-----|        |----0-----|       |----3----|     |----0----|
  |-----3-----|        |----1-----|       |----5----|     |----1----|
  |-----0-----|        |----0-----|       |----4----|     |----2----|
  |-----0-----|        |----2-----|       |----5----|     |----0----|
  |-----0-----|        |----0-----|       |----3----|     |----X----|
  |-----3-----|        |----------|       |---------|     |----x----|

       GM7                 CM5                D5              
  |-----2-----|        |----3-----|       |----5----|     
  |-----3-----|        |----3-----|       |----5----|                 
  |-----4-----|        |----4-----|       |----5----|                
  |-----5-----|        |----5-----|       |----7----|                    
  |-----0-----|        |----3-----|       |----5----|                   
  |-----3-----|        |----------|       |---------|                 



Verse 1:
       CM7          Am7
When I feel what I feel

     Bm7 - - -
Sometimes it's hard to tell you so

           Am7                 D9                      GM7-
You may not be in the mood to learn what you think you know

           CM7         Am7
There are times when I find


    Bm7                        
You want to keep yourself from me

        Am7			            D9		     GM7
When I don't have the strength; I'm just a mirror to what I see
CHORUS:
 
             Am7          Bm7
But at your best you are love

            Am7                      Bm7
You're a positive motivating force within my life
      
  Am7                     Bm7           D9
Should you ever feel the need to wonder why

         G5            CM5-D5       
Let me know, let me know. . .

Instrumental: G5-CM5-D5

VERSE 2: DO verse 1 chords

         CM7            Am7
When you feel what you feel

         Bm7
Oh, how hard for me to understand
    
     Am7                       D9                      GM7
So many things have happened before this love affair began

              CM7              Am7
But when you feel, oh, like I feel

  Bm7
Confusion can give way to doubt

               Am7                              D9
And there are times when I fall short of what I say,

                 GM7
what I say I'm all about, all about


(Repeat chorus)


That's all folks!!1 hope you'll enjoy all my tab in their album
5 comments total. Showing first comments.
0 reply
gladysmarky143 wrote on February 20 2006, 12:29 am

Walter im mark of davao ung palaging nagtititxt sayo gling ng tabs m pare!!!keep up!!!

0 reply
gladysmarky143 wrote on February 20 2006, 12:30 am

GALING!!!!!!

0 reply
S13 wrote on March 25 2006, 09:53 am

Nice one.. galing mo talaga!

I want to post or [tab]
guest
You may want to rate the tab now too:
select rating
Please do not post tabs as comments. Select "correction" instead!