Oops, an error
Loading. Please wait.

I Shoulda Loved Ya Bass Tab

2,999 views 15 this week
no commentswrite comment
1 2 3 4 5
please rate
Autoscroll
+/-
esc
set tempo
stop
Contributor
WARNING: You are trying to view
                                    content from Ultimate-Guitar.com
                                    in an unauthorized application,
                                    which is prohibited.

                                    Please use an official Ultimate
                                    Guitar Tabs application for iPhone,
                                    iPad or Android to access legitimate
                                    chords, guitar, bass, and drum tabs
                                    from Ultimate-Guitar.com database.

                                    Type "ultimate guitar tabs" in Apple
                                    App Store's or Android Market's
                                    search to find the application.
-------------------------------------------------------------------------------
                 I Shoulda Loved Ya - Narada Michael Walden
-------------------------------------------------------------------------------

Tabbed by: Ints92
E-mail: indrek92@gmail.com

Tuning: standard

As always, tabbed by my amateur ear, so I can't guarantee 100% original bassline.
 The reason it's so long is because I tried to tab all the little fills my ear could catch,
 and well, the song itself is 6:30 long. If you notice any mistakes, please let me know.


Intro

G|---------------------------------------------------------------------------|
D|---------------------------------5-5-----------------5-5-------------------|
A|---15\--3--4--5------------------------------------------x-x-1-2-----------|
E|-----------------0--1----x-x-1-1-----x-x-x-x-3-3-x-x-----------------------|

G|---------------------------------------------------------------------------|
D|----------------------------5-5-----------------5-5------------------------|
A|---3--4--5------------------------------------------x-x-1-2----------------| x2
E|------------0--1----x-x-1-1-----x-x-x-x-3-3-x-x----------------------------|

G|---------------------------------------------------------------------------|
D|------------------3-3----3-3----2-2----2-2----3-3----4-4-------------------|
A|---3--4--5-----------------------------------------------------------------|
E|------------0--1------1------0------0------1------2------------------------|

G|---------------------------------------------------------------------------|
D|----------------------------5-5-----------------5-5------------------------|
A|---3--4--5------------------------------------------x-x-1-2----------------| x3
E|------------0--1----x-x-1-1-----x-x-x-x-3-3-x-x----------------------------|

G|---------------------------------9-9------------------9-9------------------|
D|------------------3-3----3-3------------5-5----7-7-------------------------|
A|---3--4--5-------------------/7--------------------7-----------------------|
E|------------0--1------1--------------3------5------------------------------|

Chorus

G|---------------------------------------------------------------------------|
D|----------------------------5-5-----------------5-5------------------------|
A|---3--4--5----------------------------------------------1-2----------------| x3
E|------------0--1----x-x-1-1-------------3-3--------------------------------|

G|---------------------------------9-9------------------9-9------------------|
D|------------------3-3----3-3------------5-5----7-7-------------------------|
A|---3--4--5-------------------/7--------------------7-----------------------|
E|------------0--1------1--------------3------5------------------------------|

Verse

G|--------7-7---------------------------------------7-7----------------------|
D|---------------------------------------------------------------------------|
A|---5-5-------4-5-----5-6-7--------------3----5-5-------4-5-----------------|
E|------------------------------3----5--------------------------1--3-----5---|

G|--------7-7---------------------------------------7-7--------------------------|
D|-------------------------------------------------------------------------------|
A|---5-5-------4-5-----5-6-7--------------3----5-5-------4-5---------------------| x2
E|------------------------------3----5--------------------------0-1-2-3------5---|

G|--------7-7---------------------------------------7-7------------------------------------------|
D|-----------------------------------------------------------------------------------------------|
A|---5-5-------4-5-----5-6-7--------------3----5-5-------4-5----------------------------0--2--3--| 
E|------------------------------3----5--------------------------0--1--2--3--3--3--3--3-----------|

Chorus

G|---------------------------------------------------------------------------|
D|----------------------------5-5-----------------5-5------------------------|
A|---3--4--5----------------------------------------------1-2----------------| x2
E|------------0--1----x-x-1-1-------------3-3--------------------------------|

G|---------------------------------------------------------------------------|
D|----------------------------5-5---------------/7--5------------------------|
A|---3--4--5-----------------------------------------------------------------|  
E|------------0--1----x-x-1-1-------------3-3--------------------------------|

G|---------------------------------9-9------------------9--------------------|
D|------------------3-3----3-3------------5-5----7-7-------------------------|
A|---3--4--5-------------------/7--------------------7-----------------------|
E|------------0--1------1--------------3------5------------------------------|

Verse

G|--------7-7---------------------------------------7-7--------------------------|
D|-------------------------------------------------------------------------------|
A|---5-5-------4-5-----5-6-7--------------3----5-5-------4-5---------------------| x2
E|------------------------------3----5--------------------------0-1-2-3------5---|
          . .
G|--------7-7---------------------------------------7-7--------------------------|
D|-------------------------------------------------------------------------------|
A|---5---------4-5-----5-6-7--------------3----5-5-------4-5---------------------| 
E|------------------------------3----5--------------------------0-1-2-3------5---|
                                             .  
G|--------7-7--------------------------------5-------7-7----------------------------------|
D|----------------------------------------------------------------------------------------|
A|---5---------4-5-----5-6-7--------------3-----5-5-------4-5-----------------------------| 
E|------------------------------3----5--------------------------0--1--2--3--3--3--3--3----|

Chorus 

G|---------------------------------------------------------------------------|
D|----------------------------5-5-----------------5-5------------------------|
A|---3--4--5------------------------------------------x-x-1-2----------------|  
E|------------0--1----x-x-1-1-----x-x-x-x-3-3-x-x----------------------------|

G|---------------------------------------------------------------------------|
D|----------------------------5-5-----------------5-5------------------------|
A|---3--4--5----------------------------------------------1-2----------------| x2
E|------------0--1----x-x-1-1-------------3-3--------------------------------|

G|---------------------------------------------------------------------------|
D|------------------3-3----3-3----2-2----2-2----3-3----4-4-------------------|
A|---3--4--5-----------------------------------------------------------------|
E|------------0--1------1------0------0------1------2------------------------|

G|---------------------------------------------------------------------------|
D|----------------------------5-5-----------------5-5------------------------|
A|---3--4--5----------------------------------------------1-2----------------| x2
E|------------0--1----x-x-1-1-------------3-3--------------------------------|

G|---------------------------------------------------------------------------|
D|----------------------------5-5---------------7-----5----------------------|
A|---3--4--5---------------------------------------7-------------------------|  
E|------------0--1----x-x-1-1-------------3-3--------------------------------|

G|---------------------------------------------------------------------------|
D|------------------3-3----3-3----2-2----2-2----3-3----4-4-------------------|
A|---3--4--5-----------------------------------------------------------------|
E|------------0--1------1------0------0------1------2------------------------|

Bridge

G|---------------------------------------------------------------------------|
D|----------------------------5-5-----------------5-5------------------------|
A|---3--4--5------------------------------------------x-x-1-2----------------|  
E|------------0--1----x-x-1-1-----x-x-x-x-3-3-x-x----------------------------|

G|---------------------------------------------------------------------------|
D|----------------------------5-5-----------------7---5----------------------|
A|---3--4--5------------------------------------7---7---5-7\-----------------|  
E|------------0--1----x-x-1-1-----x-x-x-x-3-3-x------------------------------|

G|---------------------------------------------------------------------------|
D|----------------------------5-5-----------------5-5------------------------|
A|---3--4--5------------------------------------------x-x-1-2----------------|  
E|------------0--1----x-x-1-1-----x-x-x-x-3-3-x-x----------------------------|

G|---------------------------------9-9------------------9-9------------------|
D|------------------3-3----3-3------------5-5----7-7-------------------------|
A|---3--4--5-------------------/7--------------------7-----------------------|
E|------------0--1------1--------------3------5------------------------------|

G|--------------------------------------------------12~~---------------------|
D|----------------------------5-5--------------------------------------------|
A|---3--4--5-----------------------------------------------------------------|  
E|------------0--1----x-x-1-1-----x-x-x-x-3-3-x-3/---------------------------|

G|---------------------------------------------------------------------------|
D|----------------------------5-5-----------------5-5------------------------|
A|---3--4--5------------------------------------------x-x-1-2----------------| x2
E|------------0--1----x-x-1-1-----x-x-x-x-3-3-x-x----------------------------|

G|---------------------------------9-9------------------9-9------------------|
D|------------------3-3----3-3------------5-5----7-7-------------------------|
A|---3--4--5-------------------/7--------------------7-----------------------|
E|------------0--1------1--------------3------5------------------------------|

G|--------------------------------------------------12~~---------------------|
D|----------------------------5-5--------------------------------------------|
A|---3--4--5-----------------------------------------------------------------|  
E|------------0--1----x-x-1-1-----x-x-x-x-3-3-x-3/---------------------------|

G|---------------------------------------------------------------------------|
D|----------------------------5-5-----------------5-5------------------------|
A|---3--4--5------------------------------------------x-x-1-2----------------| x2
E|------------0--1----x-x-1-1-----x-x-x-x-3-3-x-x----------------------------|

G|---------------------------------9-9------------------9-9------------------|
D|------------------3-3----3-3------------5-5----7-7-------------------------|
A|---3--4--5-------------------/7--------------------7-----------------------|
E|------------0--1------1--------------3------5------------------------------|

G|---------------------------------------------------------------------------|   \
D|----------------------------5-5-----------------5-5------------------------|    |
A|---3--4--5----------------------------------------------1-2----------------| x3 |
E|------------0--1----x-x-1-1-------------3-3--------------------------------|    |
                                                                                  | x3
G|---------------------------------9-9------------------9-9------------------|    |
D|------------------3-3----3-3------------5-5----7-7-------------------------|    |
A|---3--4--5-------------------/7--------------------7-----------------------|    |
E|------------0--1------1--------------3------5------------------------------|   /

Chorus

G|---------------------------------------------------------------------------|                  
D|----------------------------5-5-----------------5-5------------------------|          
A|---3--4--5----------------------------------------------1-2----------------| x3       
E|------------0--1----x-x-1-1-------------3-3--------------------------------|

G|---------------------------------------------------------------------------|
D|------------------3-3----3-3----2-2----2-2----3-3----4-4-------------------|
A|---3--4--5-----------------------------------------------------------------|
E|------------0--1------1------0------0------1------2------------------------|

G|---------------------------------------------------------------------------|   \
D|----------------------------5-5-----------------5-5------------------------|    |
A|---3--4--5----------------------------------------------1-2----------------| x3 |
E|------------0--1----x-x-1-1-------------3-3--------------------------------|    |
                                                                                  | x3
G|---------------------------------9-9------------------9-9------------------|    |
D|------------------3-3----3-3------------5-5----7-7-------------------------|    |
A|---3--4--5-------------------/7--------------------7-----------------------|    |
E|------------0--1------1--------------3------5------------------------------|   /

Outro 

G|-------------------------------------------------14-12---------------------|          
D|----------------------------5-5--------------------------------------------|          
A|---3--4--5-----------------------------------5/----------------------------|  
E|------------0--1----x-x-1-1-------------3-3--------------------------------|  

G|---------------------------------------------------------------------------|                  
D|----------------------------5-5-----------------5-5------------------------|          
A|---3--4--5----------------------------------------------1-2----------------| x2       
E|------------0--1----x-x-1-1-------------3-3--------------------------------|  
                                                                                 
G|---------------------------------9-9------------------9-9------------------|  
D|------------------3-3----3-3------------5-5----7-7-------------------------|  
A|---3--4--5-------------------/7--------------------7-----------------------|  
E|------------0--1------1--------------3------5------------------------------|  

G|---------------------------------------------------------------------------|   \
D|----------------------------5-5-----------------5-5------------------------|    |
A|---3--4--5----------------------------------------------1-2----------------| x3 |
E|------------0--1----x-x-1-1-------------3-3--------------------------------|    |
                                                                                  | x2
G|---------------------------------9-9------------------9-9------------------|    |
D|------------------3-3----3-3------------5-5----7-7-------------------------|    |
A|---3--4--5-------------------/7--------------------7-----------------------|    |
E|------------0--1------1--------------3------5------------------------------|   /




| .  slap/pop
| /  slide up
| \  slide down
| h  hammer-on
| p  pull-off
| ~  vibrato
| +  harmonic
| x  Mute note
===============================================================================
comments
We did not receive enough feedback on this tab! Please rate:
print report bad tab
1 2 3 4 5
I want to post or [tab]
guest
You may want to rate the tab now too:
select rating
Please do not post tabs as comments. Select "correction" instead!