Oops, an error
Loading. Please wait.

Oil Lavender Tab

587 views 3 this week
no commentswrite comment
1 2 3 4 5
excellent!
x 1
Autoscroll
+/-
esc
set tempo
stop
Difficulty
novice
Hey! There's an official Ultimate Guitar app which is ideal
for learning songs when you're away from computer. Get the app
WARNING: You are trying to view
                                    content from Ultimate-Guitar.com
                                    in an unauthorized application,
                                    which is prohibited.

                                    Please use an official Ultimate
                                    Guitar Tabs application for iPhone,
                                    iPad or Android to access legitimate
                                    chords, guitar, bass, and drum tabs
                                    from Ultimate-Guitar.com database.

                                    Type "ultimate guitar tabs" in Apple
                                    App Store's or Android Market's
                                    search to find the application.
Nathaniel Rateliff
Oil and Lavender 

The less you play of this song, the better.

e|-----4---------2----------7---------4-------------|
B|-----5---------2----------7---------4-------------|
G|-----6---------3----------8---------4-------------|
D|-----6---------4----------9---------6-------------|
A|-----4---------4----------9---------6-------------|
E|-----4---------2----------7---------4-------------|

Extra bits

In chorus he slides these notes:

e|--2------x----x----|
B|--2------x----x----|
G|--3>-----4>---6>---|
D|--4------x----x----|
A|--4------x----x----|
E|--2------x----x----|

And adds: 

e|----7---------7-------------|
B|----7---------7-------------|
G|----8---------8-------------|
D|----9---------8-------------|
A|----9---------9-------------|
E|----7>--------8-------------|

"That's pointing at us"

and at

"I think you'd be warmer closer to me"

And being outside your wisdom      
And stretching the truth                      
I was the oil and lavender
But never for you
               
You had to toil and sit in
The sun browned your skin
It burned all the alabaster
Till the ash choked the wind

They say it's the longest light
To ever have shown
They say it's the longest lie
And that nobody knows
They say it's the longest life
And I still taste the smoke

Now only ungrateful remember
To sleep in the stone
With all of your grace and thunder
The roll and the boom

I was the cloak and dagger
That snuck into you
And we have but one life finger
That's pointing at us

And that would be the longest night
That chilled bane to bone
That would be the longest night
To sleep here alone
That would be the longest night
I think you'd be warmer closer to me

Owen Hagan.

owenhagan@hotmail.com
comments
We did not receive enough feedback on this tab! Please rate:
print report bad tab
1 2 3 4 5
I want to post or [tab]
guest
You may want to rate the tab now too:
select rating
Please do not post tabs as comments. Select "correction" instead!