Oops, an error
Loading. Please wait.

I Am A Child Tab

ver1
ver1

Whole song

Interactive

More versions @911Tabs.com
7,337 views 9 this week
no commentswrite comment
1 2 3 4 5
please rate
Autoscroll
+/-
esc
set tempo
stop
Contributor
Difficulty
intermediate
Hey! There's an official Ultimate Guitar app which is ideal
for learning songs when you're away from computer. Get the app
WARNING: You are trying to view
                                    content from Ultimate-Guitar.com
                                    in an unauthorized application,
                                    which is prohibited.

                                    Please use an official Ultimate
                                    Guitar Tabs application for iPhone,
                                    iPad or Android to access legitimate
                                    chords, guitar, bass, and drum tabs
                                    from Ultimate-Guitar.com database.

                                    Type "ultimate guitar tabs" in Apple
                                    App Store's or Android Market's
                                    search to find the application.
                                 I Am A Child     
                              
                                                            
e||-------2----2--2--2--2--|-------2----2--2--2--2--|-------0----0--0--0--0--|
B||-------2----2--2--2--2--|-------2----2--2--2--2--|-------0----0--0--0--0--|
G||-------2----2--2--2--2--|-------2----2--2--2--2--|-------0----0--0--0--0--|
D||--0---------------------|--0---------------------|--0---------------------|
A||------------------------|------------------------|------------------------|
E||------------------------|------------------------|------------------------|


                                                         
-------2----2--2--2--2--|-------3----3--3--3--3--|-------3----3--3--3--3--|
-------3----3--3--3--3--|-------0----0--0--0--0--|-------0----0--0--0--0--|
-------2----2--2--2--2--|-------0----0--0--0--0--|-------0----0--0--0--0--|
--0---------------------|--0---------------------|--0---------------------|
------------------------|------------------------|------------------------|
------------------------|------------------------|------------------------|


                                                         
-------2----2--2--2--2--|-------2----2--2--2--2--|-------1----1--1--1----|
-------3----3--3--3--3--|-------3----3--3--3--3--|-------3----3--3--3----|
-------2----2--2--2--2--|-------2----2--2--2--2--|-------2----2--2--2----|
--0---------------------|--0---------------------|--0--------------------|
------------------------|------------------------|-----------------------|
------------------------|------------------------|-----------------------|


                                                         
-------0----0--0--0--0--|-------0----0--0--0----|-------1----1--1--1----|
-------1----1--1--1--1--|-------1----1--1--1----|-------1----1--1--1----|
-------0----0--0--0--0--|-------2----2--2--2----|-------2----2--2--2----|
--3---------------------|-------2---------------|--3--------------------|
------------------------|--0--------------------|-----------------------|
------------------------|-----------------------|-----------------------|


                                                         
-------1----1--1--1----|-------1----1--1--1--1--|-------0----0--0--0--0--|
-------3----3--3--3----|-------1----1--1--1--1--|-------1----1--1--1--1--|
-------2----2--2--2----|-------2----2--2--2--2--|-------0----0--0--0--0--|
--0--------------------|--3---------------------|------------------------|
-----------------------|------------------------|--3---------------------|
-----------------------|------------------------|------------------------|


                                                          
-------0----0--0--0--0--|-------1----1--1--1----|-------0----0--0--------|
-------0----0--0--0--0--|-------3----3--3--3----|-------1----1--1--------|
-------0----0--0--0--0--|-------2----2--2--2----|-------0----0--0--------|
------------------------|--0--------------------|------------------------|
------------------------|-----------------------|--3---------------3S----|
--0---------------------|-----------------------|------------------------|


                                                         
-------0----0--0--0----|-------1----1--1--1--1--|-------1----1--1--1----|
-------1----1--1--1----|-------1----1--1--1--1--|-------3----3--3--3----|
-------2----2--2--2----|-------2----2--2--2--2--|-------2----2--2--2----|
-------2----2--2--2----|--3---------------------|--0--------------------|
--0--------------------|------------------------|-----------------------|
-----------------------|------------------------|-----------------------|


                                                         
-------1----1--1--1--1--|-------2----2--2--2--2--|-------2----2--2--0--0--|
-------1----1--1--1--1--|-------3----3--3--3--3--|-------3----3--3--0--0--|
-------2----2--2--2--2--|-------2----2--2--2--2--|-------2----2--2--0--0--|
--3---------------------|--0---------------------|--0---------------------|
------------------------|------------------------|------------------------|
------------------------|------------------------|------------------------|


                                                         
-------2----2--2--2--2--|-------2----2--2--2--2--|-------0----0--0--0--0--|
-------2----2--2--2--2--|-------2----2--2--2--2--|-------0----0--0--0--0--|
-------2----2--2--2--2--|-------2----2--2--2--2--|-------0----0--0--0--0--|
--0---------------------|--0---------------------|------------------------|
------------------------|------------------------|------------------------|
------------------------|------------------------|--0---------------------|


                                                         
-------2----2--2--2--2--|-------3----3--3--3--3--|-------3----3--3--3--3--|
-------3----3--3--3--3--|-------0----0--0--0--0--|-------0----0--0--0--0--|
-------2----2--2--2--2--|-------0----0--0--0--0--|-------0----0--0--0--0--|
--0---------------------|--0---------------------|--0---------------------|
------------------------|------------------------|------------------------|
------------------------|------------------------|------------------------|


                                                         
-------2----2--2--2--2--|-------2----2--2--2--2--|-------2----2--2--2--2--|
-------3----3--3--3--3--|-------3----3--3--3--3--|-------2----2--2--2--2--|
-------2----2--2--2--2--|-------2----2--2--2--2--|-------2----2--2--2--2--|
--0---------------------|--0---------------------|--0---------------------|
------------------------|------------------------|------------------------|
------------------------|------------------------|------------------------|


                                                         
-------2----2--2--2--2--|-------0----0--0--0--0--|-------2----2--2--2--2--|
-------2----2--2--2--2--|-------0----0--0--0--0--|-------3----3--3--3--3--|
-------2----2--2--2--2--|-------0----0--0--0--0--|-------2----2--2--2--2--|
--0---------------------|--0---------------------|--0---------------------|
------------------------|------------------------|------------------------|
------------------------|------------------------|------------------------|


                                                         
-------0----0--0--0--0--|-------0----0--0--0--0--|-------0----0--0--0--0--|
-------1----1--1--1--1--|-------1----1--1--1--1--|-------1----1--1--1--1--|
-------0----0--0--0--0--|-------0----0--0--0--0--|-------0----0--0--0--0--|
-------2----2--2--2--2--|-------2----2--2--2--2--|------------------------|
--0---------------------|--0---------------------|--3---------------------|
------------------------|------------------------|------------------------|


                                                         
-------0----0--0--0--0--|-------0----0--0--0--0--|-------0----0--0--0--0--|
-------1----1--1--1--1--|-------1----1--1--1--1--|-------1----1--1--1--1--|
-------0----0--0--0--0--|-------0----0--0--0--0--|-------0----0--0--0--0--|
------------------------|-------2----2--2--2--2--|-------2----2--2--2--2--|
--3---------------------|--0---------------------|--0---------------------|
------------------------|------------------------|------------------------|


                                                         
-------2-------2--2--2--|-------2-------2--2--2--|-------1----1--1--1----|
-------3-------3--3--3--|-------3-------3--3--3--|-------3----3--3--3----|
-------2-------2--2--2--|-------2-------2--2--2--|-------2----2--2--2----|
--0---------------------|--0---------------------|--0--------------------|
------------------------|------------------------|-----------------------|
------------------------|------------------------|-----------------------|


                                                         
-------0----0--0--0--0--|-------0----0--0--0----|-------1----1--1--1----|
-------1----1--1--1--1--|-------1----1--1--1----|-------1----1--1--1----|
-------0----0--0--0--0--|-------2----2--2--2----|-------2----2--2--2----|
--3---------------------|-------2---------------|--3--------------------|
------------------------|--0--------------------|-----------------------|
------------------------|-----------------------|-----------------------|


                                                         
-------1----1--1--1----|-------1----1--1--1--1--|-------0----0--0--0--0--|
-------3----3--3--3----|-------1----1--1--1--1--|-------1----1--1--1--1--|
-------2----2--2--2----|-------2----2--2--2--2--|-------0----0--0--0--0--|
--0--------------------|--3---------------------|------------------------|
-----------------------|------------------------|--3---------------------|
-----------------------|------------------------|------------------------|


                                                          
-------0----0--0--0--0--|-------1----1--1--1----|-------0----0--0--------|
-------0----0--0--0--0--|-------3----3--3--3----|-------1----1--1--------|
-------0----0--0--0--0--|-------2----2--2--2----|-------0----0--0--------|
------------------------|--0--------------------|------------------------|
------------------------|-----------------------|--3---------------3S----|
--0---------------------|-----------------------|------------------------|


                                                         
-------0----0--0--0----|-------1----1--1--1--1--|-------1----1--1--1----|
-------1----1--1--1----|-------1----1--1--1--1--|-------3----3--3--3----|
-------2----2--2--2----|-------2----2--2--2--2--|-------2----2--2--2----|
-------2----2--2--2----|--3---------------------|--0--------------------|
--0--------------------|------------------------|-----------------------|
-----------------------|------------------------|-----------------------|


                                                         
-------1----1--1--1--1--|-------2----2--2--2--2--|-------2----2--2--0--0--|
-------1----1--1--1--1--|-------3----3--3--3--3--|-------3----3--3--0--0--|
-------2----2--2--2--2--|-------2----2--2--2--2--|-------2----2--2--0--0--|
--3---------------------|--0---------------------|--0---------------------|
------------------------|------------------------|------------------------|
------------------------|------------------------|------------------------|


                                                         
-------2----2--2--2--2--|-------2----2--2--2--2--|-------0----0--0--0--0--|
-------2----2--2--2--2--|-------2----2--2--2--2--|-------0----0--0--0--0--|
-------2----2--2--2--2--|-------2----2--2--2--2--|-------0----0--0--0--0--|
--0---------------------|--0---------------------|------------------------|
------------------------|------------------------|------------------------|
------------------------|------------------------|--0---------------------|


                                                         
-------2----2--2--2--2--|-------3----3--3--3--3--|-------3----3--3--3--3--|
-------3----3--3--3--3--|-------0----0--0--0--0--|-------0----0--0--0--0--|
-------2----2--2--2--2--|-------0----0--0--0--0--|-------0----0--0--0--0--|
--0---------------------|--0---------------------|--0---------------------|
------------------------|------------------------|------------------------|
------------------------|------------------------|------------------------|


                                                         
-------2----2--2--2--2--|-------2----2--2--2--2--|-------2----2--2--2--2--|
-------3----3--3--3--3--|-------3----3--3--3--3--|-------2----2--2--2--2--|
-------2----2--2--2--2--|-------2----2--2--2--2--|-------2----2--2--2--2--|
--0---------------------|--0---------------------|--0---------------------|
------------------------|------------------------|------------------------|
------------------------|------------------------|------------------------|


                                                         
-------2----2--2--2--2--|-------0----0--0--0--0--|-------2----2--2--2--2--|
-------2----2--2--2--2--|-------0----0--0--0--0--|-------3----3--3--3--3--|
-------2----2--2--2--2--|-------0----0--0--0--0--|-------2----2--2--2--2--|
--0---------------------|--0---------------------|--0---------------------|
------------------------|------------------------|------------------------|
------------------------|------------------------|------------------------|


                                                         
-------0----0--0--0--0--|-------0----0--0--0--0--|-------0----0--0--0--0--|
-------1----1--1--1--1--|-------1----1--1--1--1--|-------1----1--1--1--1--|
-------0----0--0--0--0--|-------0----0--0--0--0--|-------0----0--0--0--0--|
-------2----2--2--2--2--|-------2----2--2--2--2--|------------------------|
--0---------------------|--0---------------------|--3---------------------|
------------------------|------------------------|------------------------|


                                                         
-------0----0--0--0--0--|-------0----0--0--0--0--|-------0----0--0--0--0--|
-------1----1--1--1--1--|-------1----1--1--1--1--|-------1----1--1--1--1--|
-------0----0--0--0--0--|-------0----0--0--0--0--|-------0----0--0--0--0--|
------------------------|-------2----2--2--2--2--|-------2----2--2--2--2--|
--3---------------------|--0---------------------|--0---------------------|
------------------------|------------------------|------------------------|


                                                         
-------2-------2--2--2--|-------2-------2--2--2--|-------2----2--2--2--2--|
-------3-------3--3--3--|-------3-------3--3--3--|-------2----2--2--2--2--|
-------2-------2--2--2--|-------2-------2--2--2--|-------2----2--2--2--2--|
--0---------------------|--0---------------------|--0---------------------|
------------------------|------------------------|------------------------|
------------------------|------------------------|------------------------|


                                                         
-------2----2--2--2--2--|-------0----0--0--0--0--|-------2-------2--2--2--|
-------2----2--2--2--2--|-------0----0--0--0--0--|-------3-------3--3--3--|
-------2----2--2--2--2--|-------0----0--0--0--0--|-------2-------2--2--2--|
--0---------------------|--0---------------------|--0---------------------|
------------------------|------------------------|------------------------|
------------------------|------------------------|------------------------|


                                                         
-------3----3--3--3--3--|-------3----3--3--3--3--|-------2-------2--2--2--|
-------0----0--0--0--0--|-------0----0--0--0--0--|-------3-------3--3--3--|
-------0----0--0--0--0--|-------0----0--0--0--0--|-------2-------2--2--2--|
------------------------|------------------------|--0---------------------|
------------------------|------------------------|------------------------|
--3---------------------|--3---------------------|------------------------|


                                                         
-------2-------2--2--2--|-------1-------1--1--1--|-------0----0--0--0--0--|
-------3-------3--3--3--|-------3-------3--3--3--|-------1----1--1--1--1--|
-------2-------2--2--2--|-------2-------2--2--2--|-------0----0--0--0--0--|
--0---------------------|--0---------------------|------------------------|
------------------------|------------------------|--3---------------------|
------------------------|------------------------|------------------------|


                                      
-------0----0--0--0----|-------1----1--1--1----|
-------1----1--1--1----|-------1----1--1--1----|
-------2----2--2--2----|-------2----2--2--2----|
-------2---------------|-----------------------|
--0--------------------|--0--------------------|
-----------------------|-----------------------|

                                          
                                                  
-------------------1-------1--1--1--|-------1----1--1--1----|
-------------------3-------3--3--3--|-------1----1--1--1----|
-------------------2-------2--2--2--|-------2----2--2--2----|
--0---------------------------------|--3--------------------|
------------------------------------|-----------------------|
------------------------------------|-----------------------|


                                                         
-------0----0--0--0--0--|-------0----0--0--0--0--|-------1----1--1--1--1--|
-------1----1--1--1--1--|-------0----0--0--0--0--|-------3----3--3--3--3--|
-------0----0--0--0--0--|-------0----0--0--0--0--|-------2----2--2--2--2--|
------------------------|------------------------|--0---------------------|
--3---------------------|------------------------|------------------------|
------------------------|--0---------------------|------------------------|


                    
-------0----0--0--0----||
-------1----1--1--1----||
-------0----0--0--0----||
-----------------------||
--3--------------------||
-----------------------||

comments
We did not receive enough feedback on this tab! Please rate:
print report bad tab
1 2 3 4 5
I want to post or [tab]
guest
You may want to rate the tab now too:
select rating
Please do not post tabs as comments. Select "correction" instead!