Oops, an error
Loading. Please wait.

Look Out For My Love Tab

ver1
ver1

Whole song

Interactive

More versions @911Tabs.com
10,938 views 9 this week
no commentswrite comment
1 2 3 4 5
excellent!
x 2
Autoscroll
+/-
esc
set tempo
stop
Hey! There's an official Ultimate Guitar app which is ideal
for learning songs when you're away from computer. Get the app
WARNING: You are trying to view
                                    content from Ultimate-Guitar.com
                                    in an unauthorized application,
                                    which is prohibited.

                                    Please use an official Ultimate
                                    Guitar Tabs application for iPhone,
                                    iPad or Android to access legitimate
                                    chords, guitar, bass, and drum tabs
                                    from Ultimate-Guitar.com database.

                                    Type "ultimate guitar tabs" in Apple
                                    App Store's or Android Market's
                                    search to find the application.
Let ring throughout



     Intro                                             
     Q     E  E  E  E  E  E     Q.     E  E  E  E  E   
E||-----------------0-----0--|--L------2-----2--2--0--|
B||-----------0--2--0-----3--|--L------3-----3--3--0--|
G||-----------1--1-----x--2--|--L------2-----2--2-----|
D||-----------0--0-----x--0--|--L---------0-----------|
A||--2-----x-----------------|------------------------|
E||--0-----x-----------------|------------------------|


  Q    E  E  E  E  E  E     Q    E  E  E  E  E  E     Q    E  E  E  Q    E   
-------------------------|----------3--L--3-----0--|----------------0----0--|
----------2--3--2-----0--|--L-------0--L--0--0--0--|----------0--2--0----3--|
--2-------2--2--2-----0--|--L----0--0--L--0--0--0--|--1-------1--1-------2--|
--2----x--2--2-----x--0--|--L----0-----------0-----|--2-------0--0-------0--|
--0----x-----------------|-------------------------|--2----x----------------|
-------------------------|-------------------------|--0----x----------------|


  E  E  E  E  E  E  E  E     E  E  E  E  E  E  E  E     Q    E  E  E  E  E  E   
--L--2-----0--------0--0--|--------------------------|----------3-----3--3--0--|
--L--3--3--3-----3--3--0--|--2--2-----2--3--2-----0--|----------0--0--0--0--0--|
--L--2--2--2--2--2--2--0--|--2-----2--2--2--2--x--0--|--0-------0--0--0--0--0--|
--L-----0--0--0-----0-----|--2-----2--2--2--2--x--0--|--0----0-----0-----------|
--------------------------|--0-----0-----------------|--2----2-----------------|
--------------------------|--------------------------|--3----3-----------------|


  E  E  E  E  E  E  E  E     E  E  E  E  E  E  E  E   
-----------------0-----0--|--L--2-----0--------0--0--|
-----0-----0--2--0-----3--|--L--3--3--3-----3--3--0--|
-----1--1--1--1--1--x--2--|--L--2--2--2--2--2--2--0--|
--2--2--2--2--2-----x--0--|--L-----0--0--0-----0-----|
--2-----------------------|--------------------------|
--0-----------------------|--------------------------|


  E  E  E  E  E  E  E  E     Q    E  E  E  E  E  E     E  E  E  E  E  E  E  E   
--------------------------|----------3-----3--3--0--|-----------------0-----0--|
--2--2-----2--3--2-----0--|----------0--0--0--0--0--|-----0-----0--2--0-----3--|
--2-----2--2--2--2--x--0--|--0-------0--0--0--0--0--|-----1--1--1--1--1--x--2--|
--2-----2--2--2--2--x--0--|--0----0-----0-----------|--2--2--2--2--2-----x--0--|
--0-----0-----------------|--2----2-----------------|--2-----------------------|
--------------------------|--3----3-----------------|--0-----------------------|


  E  E  E  E  E  E  E  E     E  E  E  E  E  E  E  E     Q    E  E  E  E  E  E   
--L--2-----0--------0--0--|--------------------------|--3----3--3-----3--3--0--|
--L--3--3--3-----3--3--0--|--2--2-----2--3--2-----0--|--0----0--0-----0--0--0--|
--L--2--2--2--2--2--2--0--|--2-----2--2--2--2--x--0--|--0----0--0--0--0--0--0--|
--L-----0--0--0-----0-----|--2-----2--2--2--2--x--0--|--0----0--0--0--0--0-----|
--------------------------|--0-----0-----------------|--2----2-----2-----2-----|
--------------------------|--------------------------|--3----3-----3-----3-----|


  There's a lot to learn...                                              
  Q                         E  E  E  E  E  E     Q    E  E  E  E  E  E   
----------------------------0--0-----0--0--0--|--2----2--2-----2--2--0--|
----------------------------0--0-----0--0--0--|--3----3--3-----3--3--0--|
----------------------------1--1--------1--0--|--2----2--2--2--2--2--0--|
--2-------------------------2-----2-----2-----|--0----0--0--0-----0-----|
--2-------------------------------2-----------|-------------------------|
--0-------------------------------------------|-------------------------|


  Q    E  E  E  E  E  E     Q    E  E  E  E  E  E   
----------0--0--0--0--0--|--3----3--3--L--3--3--0--|
--2----2--2--2--2--2--0--|--0----0--0--L--0--0--0--|
--2----2--2--2--2--2--0--|--0----0--0--L--0--0--0--|
--2----2-----2-----------|--0----0--0--L--0--0-----|
--0----------0-----------|--2----2-----------------|
-------------------------|--3----3-----------------|


  There's a heart that burns...                                              
  Q                             E  E  E  E  E  E     Q    E  E  E  E  E  E   
--------------------------------0--0-----0--0--0--|--2----2--2-----2--2--0--|
--------------------------------0--0-----0--0--0--|--3----3--3-----3--3--0--|
--------------------------------1--1--------1--0--|--2----2--2--2--2--2--0--|
--2-----------------------------2-----2-----2-----|--0----0--0--0-----0-----|
--2-----------------------------------2-----------|-------------------------|
--0-----------------------------------------------|-------------------------|


  Q    E  E  E  E  E  E     Q    E  E  E  E  E  E   
----------0--0--0--0--0--|--3----3--3--L--3--3--0--|
--2----2--2--2--2--2--0--|--0----0--0--L--0--0--0--|
--2----2--2--2--2--2--0--|--0----0--0--L--0--0--0--|
--2----2-----2-----------|--0----0--0--L--0--0-----|
--0----------0-----------|--2----2-----------------|
-------------------------|--3----3-----------------|


  Look out for my love...                                              
  Q                       E  E  E  E  E  E     Q    E  E  E  E  E  E   
--------------------------2--2--L--2--2--0--|--3----3--3--L--3--3--0--|
--3-----------------------3--3--L--3--3--0--|--0----0--0--L--0--0--0--|
--4-----------------------4--4--L--4--4--0--|--0----0--0--L--0--0--0--|
--4-----------------------4--4--L--4--4-----|--0----0--------0--0--0--|
--2-----------------------------------------|--2----2-----------------|
--2-----------------------------------------|--3----3-----------------|


  Q    E  E  E  E  E  E     Q    E  E  E  E  E  E     Q    E  E  E  E  E  E   
-------2--2--L--2--2--0--|--3----3--3--L--3--3--0--|-------2--2--L--2--2--0--|
--3----3--3--L--3--3--0--|--0----0--0--L--0--0--0--|--3----3--3--L--3--3--0--|
--4----4--4--L--4--4--0--|--0----0--0--L--0--0--0--|--4----4--4--L--4--4--0--|
--4----4--4--L--4--4-----|--0----0--------0--0--0--|--4----4--4--L--4--4-----|
--2----------------------|--2----2-----------------|--2----------------------|
--2----------------------|--3----3-----------------|--2----------------------|


  Q    E  E  E  E  E  E     Q    E  E  E  E  E  E     Q    E  E  E  E  E  E   
--3----3--3--L--3--3--0--|-------2--2--L--2--2--0--|--3----3--3--L--3--3--0--|
--0----0--0--L--0--0--0--|--3----3--3--L--3--3--0--|--0----0--0--L--0--0--0--|
--0----0--0--L--0--0--0--|--4----4--4--L--4--4--0--|--0----0--0--L--0--0--0--|
--0----0--------0--0--0--|--4----4--4--L--4--4-----|--0----0--------0--0--0--|
--2----2-----------------|--2----------------------|--2----2-----------------|
--3----3-----------------|--2----------------------|--3----3-----------------|


  Own it!...                                             
  Q          Q    E  E  E  E     E  E  E  E  Q     Q     
------------------------------|-------------------------|
------------------------------|-------------------------|
------------------------------|-------------------------|
--9----------9-------------7--|--6-----6-----------4----|
--7----------7-------7--9-----|-----7-----9--5~----5----|
--0----------0----x-----------|--------------0~---------|


  Q    Q    E  E  E  E      E  E   E  E   Q    Q       Q    Q    E  E  E  E   
-------------------------|--------------------------|------------------------|
-------------------------|--------------------------|------------------------|
-------------------------|--------------------------|------------------------|
--9----9-------------7~--|--L--6~--L--4~--L----x----|--9----9-------------7--|
--7----7-------7--9------|---------------------x----|--7----7-------7--9-----|
--0----0----x------------|--------------------------|--0----0----x-----------|


                            There's a weight on you...                    
  E  E  E  E  Q     Q       Q                          E  E  E  E  E  E   
-------------------------|-----------------------------0--0-----0--0--0--|
-------------------------|-----------------------------0--0-----0--0--0--|
-------------------------|-----------------------------1--1--------1--0--|
--6-----6-----------4----|--2--------------------------2-----2-----2-----|
-----7-----9--5~----5----|--2--------------------------------2-----------|
--------------0~---------|--0--------------------------------------------|


  Q    E  E  E  E  E  E     Q    E  E  E  E  E  E     Q    E  E  E  E  E  E   
--2----2--2-----2--2--0--|----------0--0--0--0--0--|--3----3--3--L--3--3--0--|
--3----3--3-----3--3--0--|--2----2--2--2--2--2--0--|--0----0--0--L--0--0--0--|
--2----2--2--2--2--2--0--|--2----2--2--2--2--2--0--|--0----0--0--L--0--0--0--|
--0----0--0--0-----0-----|--2----2-----2-----------|--0----0--0--L--0--0-----|
-------------------------|--0----------0-----------|--2----2-----------------|
-------------------------|-------------------------|--3----3-----------------|


  Livin' like I do...                                              
  Q                   E  E  E  E  E  E     Q    E  E  E  E  E  E   
----------------------0--0-----0--0--0--|--2----2--2-----2--2--0--|
----------------------0--0-----0--0--0--|--3----3--3-----3--3--0--|
----------------------1--1--------1--0--|--2----2--2--2--2--2--0--|
--2-------------------2-----2-----2-----|--0----0--0--0-----0-----|
--2-------------------------2-----------|-------------------------|
--0-------------------------------------|-------------------------|


  Q    E  E  E  E  E  E     Q    E  E  E  E  E  E   
----------0--0--0--0--0--|--3----3--3--L--3--3--0--|
--2----2--2--2--2--2--0--|--0----0--0--L--0--0--0--|
--2----2--2--2--2--2--0--|--0----0--0--L--0--0--0--|
--2----2-----2-----------|--0----0--0--L--0--0-----|
--0----------0-----------|--2----2-----------------|
-------------------------|--3----3-----------------|


  Was I hurt too bad?...                                              
  Q                      E  E  E  E  E  E     Q    E  E  E  E  E  E   
-------------------------0--0-----0--0--0--|--2----2--2-----2--2--0--|
-------------------------0--0-----0--0--0--|--3----3--3-----3--3--0--|
-------------------------1--1--------1--0--|--2----2--2--2--2--2--0--|
--2----------------------2-----2-----2-----|--0----0--0--0-----0-----|
--2----------------------------2-----------|-------------------------|
--0----------------------------------------|-------------------------|


  Q    E  E  E  E  E  E     Q    E  E  E  E  E  E   
----------0--0--0--0--0--|--3----3--3--L--3--3--0--|
--2----2--2--2--2--2--0--|--0----0--0--L--0--0--0--|
--2----2--2--2--2--2--0--|--0----0--0--L--0--0--0--|
--2----2-----2-----------|--0----0--0--L--0--0-----|
--0----------0-----------|--2----2-----------------|
-------------------------|--3----3-----------------|


  How can I be sad?...                                              
  Q                    E  E  E  E  E  E     Q    E  E  E  E  E  E   
-----------------------0--0-----0--0--0--|--2----2--2-----2--2--0--|
-----------------------0--0-----0--0--0--|--3----3--3-----3--3--0--|
-----------------------1--1--------1--0--|--2----2--2--2--2--2--0--|
--2--------------------2-----2-----2-----|--0----0--0--0-----0-----|
--2--------------------------2-----------|-------------------------|
--0--------------------------------------|-------------------------|


  Q    E  E  E  E  E  E     Q    E  E  E  E  E  E   
----------0--0--0--0--0--|--3----3--3--L--3--3--0--|
--2----2--2--2--2--2--0--|--0----0--0--L--0--0--0--|
--2----2--2--2--2--2--0--|--0----0--0--L--0--0--0--|
--2----2-----2-----------|--0----0--0--L--0--0-----|
--0----------0-----------|--2----2-----------------|
-------------------------|--3----3-----------------|


  Look out for my love...                                              
  Q                       E  E  E  E  E  E     Q    E  E  E  E  E  E   
--------------------------2--2--L--2--2--0--|--3----3--3--L--3--3--0--|
--3-----------------------3--3--L--3--3--0--|--0----0--0--L--0--0--0--|
--4-----------------------4--4--L--4--4--0--|--0----0--0--L--0--0--0--|
--4-----------------------4--4--L--4--4-----|--0----0--------0--0--0--|
--2-----------------------------------------|--2----2-----------------|
--2-----------------------------------------|--3----3-----------------|


  Q    E  E  E  E  E  E     Q    E  E  E  E  E  E     Q    E  E  E  E  E  E   
-------2--2--L--2--2--0--|--3----3--3--L--3--3--0--|-------2--2--L--2--2--0--|
--3----3--3--L--3--3--0--|--0----0--0--L--0--0--0--|--3----3--3--L--3--3--0--|
--4----4--4--L--4--4--0--|--0----0--0--L--0--0--0--|--4----4--4--L--4--4--0--|
--4----4--4--L--4--4-----|--0----0--------0--0--0--|--4----4--4--L--4--4-----|
--2----------------------|--2----2-----------------|--2----------------------|
--2----------------------|--3----3-----------------|--2----------------------|


  Q    E  E  E  E  E  E     Q    E  E  E  E  E  E     Q    E  E  E  E  E  E   
--3----3--3--L--3--3--0--|-------2--2--L--2--2--0--|--3----3--3--L--3--3--0--|
--0----0--0--L--0--0--0--|--3----3--3--L--3--3--0--|--0----0--0--L--0--0--0--|
--0----0--0--L--0--0--0--|--4----4--4--L--4--4--0--|--0----0--0--L--0--0--0--|
--0----0--------0--0--0--|--4----4--4--L--4--4-----|--0----0--------0--0--0--|
--2----2-----------------|--2----------------------|--2----2-----------------|
--3----3-----------------|--2----------------------|--3----3-----------------|


  Look out for my love...                                              
  Q                       E  E  E  E  E  E     Q    E  E  E  E  E  E   
--0-----------------------0--0-----0--0--0--|--0----0--0-----0--0--0--|
--1-----------------------1--1-----1--1--1--|--1----1--1-----1--1--0--|
--0-----------------------0--0--0--0--0--0--|--0----0--0--0--0--0--0--|
--2-----------------------2-----2-----2--2--|--2----2-----2-----2-----|
--3-----------------------3-----3-----3-----|--3----3-----3-----3-----|
--------------------------------------------|-------------------------|


  It's in your neighborhood                                              
  Q                         E  E  E  E  E  E     Q    E  E  E  E  E  E   
-------------------------------0--L--0-----0--|--0----0--0-----0--0--0--|
--0-------------------------0--0--L--0-----0--|--0----0--0-----0--0--0--|
--0-------------------------0--0--L--0--0--0--|--0----0--0--0--0--0--0--|
--2-------------------------2-----------2-----|--2----2-----2-----2-----|
--2-------------------------2-----------2-----|--2----2-----2-----2-----|
--0-------------------------0-----------0-----|--0----0-----0-----0-----|


  Q    E  E  E  E  E  E     Q    E  E  E  E  E  E     Q    Q    Q    E  E   
--0----0--0--L--0-----0--|--0----0--0-----0--0--0--|--3----3----3----3--3--|
--1----1--1--L--1-----1--|--1----1--1-----1--1--1--|--0----0----0----0--0--|
--2----2--2--L--2--2--2--|--2----2--2--2--2--2--2--|--0----0----0----0--0--|
--2----2--------2--2-----|--2----2--2--2-----2--2--|--0----0----0----0--0--|
--0----------------------|--0----0-----0-----0-----|--2----2----2----2--2--|
-------------------------|-------------------------|--3----3----3----3--3--|


  Q    E  E  E  E  E  E     Q    Q    E  E  E  E     E  E  E  E  Q     Q     
--L----3--3--3--3--3--0--|------------------------|-------------------------|
--L----0--0--0--0--0--0--|------------------------|-------------------------|
--L----0--0--0--0--0--0--|------------------------|-------------------------|
--L----0--0--0--0--------|--9----9-------------7--|--6-----6-----------4----|
--L----2-----2-----------|--7----7-------7--9-----|-----7-----9--5~----5----|
--L----3-----3-----------|--0----0----x-----------|--------------0~---------|


  Q    Q    E  E  E  E      E  E   E  E   Q    Q       Q    Q    E  E  E  E   
-------------------------|--------------------------|------------------------|
-------------------------|--------------------------|------------------------|
-------------------------|--------------------------|------------------------|
--9----9-------------7~--|--L--6~--L--4~--L----x----|--9----9-------------7--|
--7----7-------7--9------|---------------------x----|--7----7-------7--9-----|
--0----0----x------------|--------------------------|--0----0----x-----------|


                            Silver wings of mornin'...                    
  E  E  E  E  Q     Q       Q                          E  E  E  E  E  E   
-------------------------|-----------------------------0--0-----0--0--0--|
-------------------------|-----------------------------0--0-----0--0--0--|
-------------------------|-----------------------------1--1--------1--0--|
--6-----6-----------4----|--2--------------------------2-----2-----2-----|
-----7-----9--5~----5----|--2--------------------------------2-----------|
--------------0~---------|--0--------------------------------------------|


  Q    E  E  E  E  E  E     Q    E  E  E  E  E  E     Q    E  E  E  E  E  E   
--2----2--2-----2--2--0--|----------0--0--0--0--0--|--3----3--3--L--3--3--0--|
--3----3--3-----3--3--0--|--2----2--2--2--2--2--0--|--0----0--0--L--0--0--0--|
--2----2--2--2--2--2--0--|--2----2--2--2--2--2--0--|--0----0--0--L--0--0--0--|
--0----0--0--0-----0-----|--2----2-----2-----------|--0----0--0--L--0--0-----|
-------------------------|--0----------0-----------|--2----2-----------------|
-------------------------|-------------------------|--3----3-----------------|


  While the ice is formin'...                                              
  Q                           E  E  E  E  E  E     Q    E  E  E  E  E  E   
------------------------------0--0-----0--0--0--|--2----2--2-----2--2--0--|
------------------------------0--0-----0--0--0--|--3----3--3-----3--3--0--|
------------------------------1--1--------1--0--|--2----2--2--2--2--2--0--|
--2---------------------------2-----2-----2-----|--0----0--0--0-----0-----|
--2---------------------------------2-----------|-------------------------|
--0---------------------------------------------|-------------------------|


  Q    E  E  E  E  E  E     Q    E  E  E  E  E  E   
----------0--0--0--0--0--|--3----3--3--L--3--3--0--|
--2----2--2--2--2--2--0--|--0----0--0--L--0--0--0--|
--2----2--2--2--2--2--0--|--0----0--0--L--0--0--0--|
--2----2-----2-----------|--0----0--0--L--0--0-----|
--0----------0-----------|--2----2-----------------|
-------------------------|--3----3-----------------|


  Hydraulic wipers pumpin'...                                              
  Q                           E  E  E  E  E  E     Q    E  E  E  E  E  E   
------------------------------0--0-----0--0--0--|--2----2--2-----2--2--0--|
------------------------------0--0-----0--0--0--|--3----3--3-----3--3--0--|
------------------------------1--1--------1--0--|--2----2--2--2--2--2--0--|
--2---------------------------2-----2-----2-----|--0----0--0--0-----0-----|
--2---------------------------------2-----------|-------------------------|
--0---------------------------------------------|-------------------------|


  Q    E  E  E  E  E  E     Q    E  E  E  E  E  E   
----------0--0--0--0--0--|--3----3--3--L--3--3--0--|
--2----2--2--2--2--2--0--|--0----0--0--L--0--0--0--|
--2----2--2--2--2--2--0--|--0----0--0--L--0--0--0--|
--2----2-----2-----------|--0----0--0--L--0--0-----|
--0----------0-----------|--2----2-----------------|
-------------------------|--3----3-----------------|


  Somethin' sayin' somethin'...                                              
  Q                             E  E  E  E  E  E     Q    E  E  E  E  E  E   
--------------------------------0--0-----0--0--0--|--2----2--2-----2--2--0--|
--------------------------------0--0-----0--0--0--|--3----3--3-----3--3--0--|
--------------------------------1--1--------1--0--|--2----2--2--2--2--2--0--|
--2-----------------------------2-----2-----2-----|--0----0--0--0-----0-----|
--2-----------------------------------2-----------|-------------------------|
--0-----------------------------------------------|-------------------------|


  Q    E  E  E  E  E  E     Q    E  E  E  E  E  E   
----------0--0--0--0--0--|--3----3--3--L--3--3--0--|
--2----2--2--2--2--2--0--|--0----0--0--L--0--0--0--|
--2----2--2--2--2--2--0--|--0----0--0--L--0--0--0--|
--2----2-----2-----------|--0----0--0--L--0--0-----|
--0----------0-----------|--2----2-----------------|
-------------------------|--3----3-----------------|


  Men with walkie-talkies...                                              
  Q                          E  E  E  E  E  E     Q    E  E  E  E  E  E   
-----------------------------0--0-----0--0--0--|--2----2--2-----2--2--0--|
-----------------------------0--0-----0--0--0--|--3----3--3-----3--3--0--|
-----------------------------1--1--------1--0--|--2----2--2--2--2--2--0--|
--2--------------------------2-----2-----2-----|--0----0--0--0-----0-----|
--2--------------------------------2-----------|-------------------------|
--0--------------------------------------------|-------------------------|


  Q    E  E  E  E  E  E     Q    E  E  E  E  E  E   
----------0--0--0--0--0--|--3----3--3--L--3--3--0--|
--2----2--2--2--2--2--0--|--0----0--0--L--0--0--0--|
--2----2--2--2--2--2--0--|--0----0--0--L--0--0--0--|
--2----2-----2-----------|--0----0--0--L--0--0-----|
--0----------0-----------|--2----2-----------------|
-------------------------|--3----3-----------------|


  Up upon the tower...                                              
  Q                    E  E  E  E  E  E     Q    E  E  E  E  E  E   
-----------------------0--0-----0--0--0--|--2----2--2-----2--2--0--|
-----------------------0--0-----0--0--0--|--3----3--3-----3--3--0--|
-----------------------1--1--------1--0--|--2----2--2--2--2--2--0--|
--2--------------------2-----2-----2-----|--0----0--0--0-----0-----|
--2--------------------------2-----------|-------------------------|
--0--------------------------------------|-------------------------|


  Q    E  E  E  E  E  E     Q    E  E  E  E  E  E   
----------0--0--0--0--0--|--3----3--3--L--3--3--0--|
--2----2--2--2--2--2--0--|--0----0--0--L--0--0--0--|
--2----2--2--2--2--2--0--|--0----0--0--L--0--0--0--|
--2----2-----2-----------|--0----0--0--L--0--0-----|
--0----------0-----------|--2----2-----------------|
-------------------------|--3----3-----------------|


  It's home again to you babe...                                              
  Q                              E  E  E  E  E  E     Q    E  E  E  E  E  E   
---------------------------------0--0-----0--0--0--|--2----2--2-----2--2--0--|
---------------------------------0--0-----0--0--0--|--3----3--3-----3--3--0--|
---------------------------------1--1--------1--0--|--2----2--2--2--2--2--0--|
--2------------------------------2-----2-----2-----|--0----0--0--0-----0-----|
--2------------------------------------2-----------|-------------------------|
--0------------------------------------------------|-------------------------|


  Q    E  E  E  E  E  E     Q    E  E  E  E  E  E   
----------0--0--0--0--0--|--3----3--3--L--3--3--0--|
--2----2--2--2--2--2--0--|--0----0--0--L--0--0--0--|
--2----2--2--2--2--2--0--|--0----0--0--L--0--0--0--|
--2----2-----2-----------|--0----0--0--L--0--0-----|
--0----------0-----------|--2----2-----------------|
-------------------------|--3----3-----------------|


  Sittin' in the quiet...                                              
  Q                       E  E  E  E  E  E     Q    E  E  E  E  E  E   
--------------------------0--0-----0--0--0--|--2----2--2-----2--2--0--|
--------------------------0--0-----0--0--0--|--3----3--3-----3--3--0--|
--------------------------1--1--------1--0--|--2----2--2--2--2--2--0--|
--2-----------------------2-----2-----2-----|--0----0--0--0-----0-----|
--2-----------------------------2-----------|-------------------------|
--0-----------------------------------------|-------------------------|


  Q    E  E  E  E  E  E     Q    E  E  E  E  E  E   
----------0--0--0--0--0--|--3----3--3--L--3--3--0--|
--2----2--2--2--2--2--0--|--0----0--0--L--0--0--0--|
--2----2--2--2--2--2--0--|--0----0--0--L--0--0--0--|
--2----2-----2-----------|--0----0--0--L--0--0-----|
--0----------0-----------|--2----2-----------------|
-------------------------|--3----3-----------------|


  Look out for my love...                                              
  Q                       E  E  E  E  E  E     Q    E  E  E  E  E  E   
--------------------------2--2--L--2--2--0--|--3----3--3--L--3--3--0--|
--3-----------------------3--3--L--3--3--0--|--0----0--0--L--0--0--0--|
--4-----------------------4--4--L--4--4--0--|--0----0--0--L--0--0--0--|
--4-----------------------4--4--L--4--4-----|--0----0--------0--0--0--|
--2-----------------------------------------|--2----2-----------------|
--2-----------------------------------------|--3----3-----------------|


  Q    E  E  E  E  E  E     Q    E  E  E  E  E  E     Q    E  E  E  E  E  E   
-------2--2--L--2--2--0--|--3----3--3--L--3--3--0--|-------2--2--L--2--2--0--|
--3----3--3--L--3--3--0--|--0----0--0--L--0--0--0--|--3----3--3--L--3--3--0--|
--4----4--4--L--4--4--0--|--0----0--0--L--0--0--0--|--4----4--4--L--4--4--0--|
--4----4--4--L--4--4-----|--0----0--------0--0--0--|--4----4--4--L--4--4-----|
--2----------------------|--2----2-----------------|--2----------------------|
--2----------------------|--3----3-----------------|--2----------------------|


  Q    E  E  E  E  E  E     Q    E  E  E  E  E  E     Q    E  E  E  E  E  E   
--3----3--3--L--3--3--0--|-------2--2--L--2--2--0--|--3----3--3--L--3--3--0--|
--0----0--0--L--0--0--0--|--3----3--3--L--3--3--0--|--0----0--0--L--0--0--0--|
--0----0--0--L--0--0--0--|--4----4--4--L--4--4--0--|--0----0--0--L--0--0--0--|
--0----0--------0--0--0--|--4----4--4--L--4--4-----|--0----0--------0--0--0--|
--2----2-----------------|--2----------------------|--2----2-----------------|
--3----3-----------------|--2----------------------|--3----3-----------------|


  Q    E  E  E  E  E  E     Q    E  E  E  E  E  E     Q    E  E  E  E  E  E   
-------2--2--L--2--2--0--|--3----3--3--L--3--3--0--|-------2--2--L--2--2--0--|
--3----3--3--L--3--3--0--|--0----0--0--L--0--0--0--|--3----3--3--L--3--3--0--|
--4----4--4--L--4--4--0--|--0----0--0--L--0--0--0--|--4----4--4--L--4--4--0--|
--4----4--4--L--4--4-----|--0----0--------0--0--0--|--4----4--4--L--4--4-----|
--2----------------------|--2----2-----------------|--2----------------------|
--2----------------------|--3----3-----------------|--2----------------------|


  Q    E  E  E  E  E  E    
--3----3--3--L--3--3--0--||
--0----0--0--L--0--0--0--||
--0----0--0--L--0--0--0--||
--0----0--------0--0--0--||
--2----2-----------------||
--3----3-----------------||




Duration Legend
---------------
W - whole
H - half
Q - quarter
E - 8th
S - 16th
T - 32nd
X - 64th
. - note dotted
|-n-|  - n-tuplets


Tablature Legend
----------------
L - tied note
x - dead note
g - grace note
(n) - ghost note
> - accentuded note
NH - natural harmonic
AH - artificial harmonic
TH - tapped harmonic
SH - semi harmonic
PH - pitch harmonic
h - hammer on
p - pull off
b - bend
br - bendRelease
pb - preBend
pbr - preBendRelease
brb - bendReleaseBend
\n/ - tremolo bar dip
\n - tremolo bar dive
-/n - tremolo bar Release up
/n\ - tremolo bar inverted dip
/n - tremolo bar return
-\n - tremolo bar Release down
S - shift slide
s - legato slide
/ -  slide into from below or out of upwards
\ -  slide into from above or out of downwards
~ - vibrato
W - wide vibrato
tr - trill
TP - tremolo picking
T - tapping
S - slap
P - pop
< - fade in
^ - brush up
v - brush down
comments
We did not receive enough feedback on this tab! Please rate:
print report bad tab
1 2 3 4 5
I want to post or [tab]
guest
You may want to rate the tab now too:
select rating
Please do not post tabs as comments. Select "correction" instead!