Oops, an error
Loading. Please wait.

No More Tab

3,956 views 6 this week
2 commentsread comments
1 2 3 4 5
excellent!
x 1
Autoscroll
+/-
esc
set tempo
stop
Hey! There's an official Ultimate Guitar app which is ideal
for learning songs when you're away from computer. Get the app
WARNING: You are trying to view
                                    content from Ultimate-Guitar.com
                                    in an unauthorized application,
                                    which is prohibited.

                                    Please use an official Ultimate
                                    Guitar Tabs application for iPhone,
                                    iPad or Android to access legitimate
                                    chords, guitar, bass, and drum tabs
                                    from Ultimate-Guitar.com database.

                                    Type "ultimate guitar tabs" in Apple
                                    App Store's or Android Market's
                                    search to find the application.
Neil Young "No More"
Tabbed by Aaron Fritschner
Tuning: DADGBD

Three general notes should be made:
1) I transcribed the notes as I did the way I heard them, and as they seemed convenient,
but many will sound or feel better on different strings. 
2) This is the studio version. I believe that Neil has played the song this way exactly
once, when he made the recording. So these are really just guidelines, and it should be
played as you feel it, not as you hear it.
3) This song is a song about possession, played with feeling. If you're having a good
day, I would recommend a different song. 

First off there's the main (chorus) riff, bar 12 (G), bar 10 (F), bar 3 (Bb), bar 5 (C)
four times. Then the progression is D5, Bb, C, D5 in the verses, then Dm, Am7 in the
pre-chorus, then the chorus riff, and a hard D5 finally when he says "No More". Sorry
to repeat what's already around, but it'll save you the trouble of looking if you didn't
know it by heart.
So, the fills!

Intro solo
d|---------------------------------------------------------------------------|
B|----------3--------------------------3-------------------------------------|
G|--0h2-----2-----0-2—3vv--3--0-----0—-2vvv----0—2-3vvv--2—-3-—3s5-----------|
D|-------0--0--------------------2-----0----------------------------5vv------|
A|---------------------------------------------------------------------------|
D|---------------------------------------------------------------------------|

Livin' on the edge of night
You know that the sun won't go down slow

d|---------------------------------------------------------------------------|
B|---------------------------------------------------------------------------|
G|--2--3--2--0---------------------------------------------------------------|
D|--------------3--------------0---------------------------------------------|
A|-----------------1vvv-----3-----3------------------------------------------|
D|---------------------------------------------------------------------------|

You don't know which drug is right
Can't decide which way
You wanna go

d|---------------------------------------------------------------------------|
B|-----3---------------------------------------------------------------------|
G|--2--2--2--2—-0--2—-3vv--2—2h3---------------------------------------------|
D|--0-----0--0--------------------5------------------------------------------|
A|---------------------------------------------------------------------------|
D|---------------------------------------------------------------------------|

I feel the way you feel
Cuz not so long ago
It had a hold on me
I couldn't let it go
It wouldn't set me free
It wouldn't set me free
No more
No more
No more
No More                                                             strum over
                                                                        slowly
d|---------------------------------------------------------------------------|
B|----------------------------------------------------------------6----6-----|
G|--0h2—2vv--2--2--2--0-------------------------------------7--7-----7---7--5|
D|-----------------------3—-3vv---5—5h7—5vvv--5—-7--s10—-7---------------7--5|
A|---------------------------------------------------------------------------|
D|---------------------------------------------------------------------------|

Seemed like the easy thing
To let it go for one more day

d|---------------------------------------------------------------------------|
B|--------3------------------------------------------------------------------|
G|--2--3--3--3--2--3vv--2--3—-3s5-----------2--------------------------------|
D|------------------------------------------0--------------------------------|
A|---------------------------------3vv---------------------------------------|
D|---------------------------------------------------------------------------|

Like singin' the same old song
And twistin' the words
In a different way

d|---------------------------------------------------------------------------|
B|---------------------------------------------------------------------------|
G|--2--3—-3s5—3vv--2—-3vv--5--5s7—-5vv---------------------------------------|
D|---------------------------------------------------------------------------|
A|---------------------------------------------------------------------------|
D|---------------------------------------------------------------------------|

Where did the magic go?
I searched high and low
I can't find it no more
I can't get it back
I can't find it no more
I can't find it no more
No more
No more
No more
No more

d|---------------------------------------------------------------------------|
B|-------------------------------3---3---------------------------------------|
G|-0h2-p0h2---2--0------------5v---5---0h2vv---------------------------------|
D|------------------3—3vv---3------------------7--5--3--2--0-----------------|
A|-----------------------------------------------------------3—-1v—-3s5—-5s3-|
D|---------------------------------------------------------------------------|

d|---------------------------------------------------------------------------|
B|---------------------------------------------------------------------------|
G|---------------------------------------------------------------------------|
D|--------------------------------------------3v--5—-7—-5--------------------|
A|--3s5------------0-3-----------0h3--0-5--0---------------------------------|
D|-------0-0-0-0-0-------0-0-0-0---------------------------------------------|

He adds some distortion and a delay with the pedal here

d|---------------------------------------------------------------------------|
B|---------10-----------10----------10---14-----14---------------------------|
G|--12b14--------12b14-------12b14-------12b14—(14)-14r12--10---12b14r12-----|
D|---------------------------------------------------------------------------|
A|---------------------------------------------------------------------------|
D|---------------------------------------------------------------------------|
                                         Uses his Bigsby here
d|---------------------------------------------------------------------------|
B|------------------------------------------6-----------3s5------------------|
G|--12--14—-17vv—17vv---17p14---17p14-------7-------7---3s5------------------|
D|------------------------------------------8----8------3s5------------------|
A|---------------------------------------------------------------------------|
D|---------------------------------------------------------------------------|

Searchin' for a quality
Havin' to have
The very best

           with delay          
d|---------------------------------------0-----------------------------------|
B|-----3---------------------------------3--3--------------------------------|
G|--2--2--2vv----0--2--3-3s5—-2h3---2--0-0--2--------------------------------|
D|-----0---------------------------------0--0--------------------------------|
A|---------------------------------------------------------------------------|
D|---------------------------------------------------------------------------|

Now scroungin' for quantity
Never havin' time
To do the test

d|---------------------------------------------------------------------------|
B|------5-6--5---------------------------------------------------------------|
G|----7---------7vvv---7--5—5vv----------------------------------------------|
D|--7------------------------------------------------------------------------|
A|---------------------------------------------------------------------------|
D|---------------------------------------------------------------------------|

That's how the story goes
Can't put it down
'Til the last page
I can't put it down
I can't put it down
I can't put it down



Neil does his Old Black thing for the last minute of the song. 
That's it, my favorite Neil electric song. Enjoy!
comments
We did not receive enough feedback on this tab! Please rate:
print report bad tab
1 2 3 4 5
2 comments total.
0 reply
Rockin' Gramps wrote on March 21 2012, 03:43 pm

Great job brother, I love this song!!! THX RG

0 reply
TVeye wrote on November 5 2013, 02:24 am

I would say nice job and well done but, "nobody wants me here" so ......

I want to post or [tab]
guest
You may want to rate the tab now too:
select rating
Please do not post tabs as comments. Select "correction" instead!