Oops, an error
Loading. Please wait.

War Of Man Tab

5,441 views 3 this week
no commentswrite comment
1 2 3 4 5
excellent!
x 1
Autoscroll
+/-
esc
set tempo
stop
WARNING: You are trying to view
                                    content from Ultimate-Guitar.com
                                    in an unauthorized application,
                                    which is prohibited.

                                    Please use an official Ultimate
                                    Guitar Tabs application for iPhone,
                                    iPad or Android to access legitimate
                                    chords, guitar, bass, and drum tabs
                                    from Ultimate-Guitar.com database.

                                    Type "ultimate guitar tabs" in Apple
                                    App Store's or Android Market's
                                    search to find the application.
Acoustic I



     Q    E  Q    E  Q       E  E  Q    H           Q    E  Q    E  Q     
D||--5----5--5----5--5----|--7--7--7----7--------|--0----0--0----0--0----|
B||--5----5--5----5--5----|--7--7--7----7--------|--6----6--6----6--0----|
G||--5----5--5----5--5----|--7--7--7----7--------|--5----5--5----5--0----|
D||--5----5--5----5--5----|--7--7--7----7--------|--0----0--0----0--0----|
A||-----------------------|----------------------|--0----0--0----0--0----|
D||-----------------------|----------------------|--0----0--0----0--0----|


  E  E  E   Q    E  Q       Q    Q    E  E  E  E     E  E  Q    H         
-------------------------|-------5----5--5--5--5--|--7--7--7----7--------|
--6--6--x---8----L-------|-------5----5--5--5--5--|--7--7--7----7--------|
--7--7--x---9----L-------|-------5----5--5--5--5--|--7--7--7----7--------|
--8--8--x--10----L-------|-------5----5--5--5--5--|--7--7--7----7--------|
--8--8--x--10----L-------|------------------------|----------------------|
--------------------2----|--0---------------------|----------------------|


  Q    E  Q    E  Q       E  E  E   Q    E  Q     
--0----0--0----0--0----|-------------------------|
--6----6--6----6--0----|--6--6--x---8----L-------|
--5----5--5----5--0----|--7--7--x---9----L-------|
--0----0--0----0--0----|--8--8--x--10----L-------|
--0----0--0----0--0----|--8--8--x--10----L-------|
--0----0--0----0--0----|--------------------2----|


       The little creatures run              
  Q    Q                        E  E  E  E   
-------5------------------------5--5--5--5--|
-------5------------------------5--5--5--5--|
-------5------------------------5--5--5--5--|
-------5------------------------5--5--5--5--|
--------------------------------------------|
--0-----------------------------------------|


  in from the cold                   
  E                E  Q    H         
--7----------------7--7----7--------|
--7----------------7--7----7--------|
--7----------------7--7----7--------|
--7----------------7--7----7--------|
------------------------------------|
------------------------------------|


  Back to the nest just like the                  
  Q                              E  Q    E  Q     
--0------------------------------0--0----0--0----|
--6------------------------------6--6----6--0----|
--5------------------------------5--5----5--0----|
--0------------------------------0--0----0--0----|
--0------------------------------0--0----0--0----|
--0------------------------------0--0----0--0----|


     days of old...                                             
  E  E              E   Q     E   Q       Q    E  Q    E  Q     
---------------------------------------|--5----5--5----5--5----|
--6--6--------------x---8-----8---L----|--5----5--5----5--5----|
--7--7--------------x---9-----9---L----|--5----5--5----5--5----|
--8--8--------------x--10----10---L----|--5----5--5----5--5----|
--8--8--------------x--10----10---L----|-----------------------|
---------------------------------------|-----------------------|


  E  E  Q    H           Q    E  Q    E  Q       E  E  E   Q     E   Q     
--7--7--7----7--------|--0----0--0----0--0----|---------------------------|
--7--7--7----7--------|--6----6--6----6--0----|--6--6--x---8-----8---L----|
--7--7--7----7--------|--5----5--5----5--0----|--7--7--x---9-----9---L----|
--7--7--7----7--------|--0----0--0----0--0----|--8--8--x--10----10---L----|
----------------------|--0----0--0----0--0----|--8--8--x--10----10---L----|
----------------------|--0----0--0----0--0----|---------------------------|


  Q    E  Q    E  Q       E  E  Q    H           Q    E  Q    E  Q     
--5----5--5----5--5----|--7--7--7----7--------|--0----0--0----0--0----|
--5----5--5----5--5----|--7--7--7----7--------|--6----6--6----6--0----|
--5----5--5----5--5----|--7--7--7----7--------|--5----5--5----5--0----|
--5----5--5----5--5----|--7--7--7----7--------|--0----0--0----0--0----|
-----------------------|----------------------|--0----0--0----0--0----|
-----------------------|----------------------|--0----0--0----0--0----|


  E  E  E   Q     E   Q       Q    E  Q    E  Q       E  E  Q    H         
---------------------------|--5----5--5----5--5----|--7--7--7----7--------|
--6--6--x---8-----8---L----|--5----5--5----5--5----|--7--7--7----7--------|
--7--7--x---9-----9---L----|--5----5--5----5--5----|--7--7--7----7--------|
--8--8--x--10----10---L----|--5----5--5----5--5----|--7--7--7----7--------|
--8--8--x--10----10---L----|-----------------------|----------------------|
---------------------------|-----------------------|----------------------|


  Q    E  Q    E  Q       E  E  E   Q     E   Q       Q    E  Q    E  Q     
--0----0--0----0--0----|---------------------------|--5----5--5----5--5----|
--6----6--6----6--0----|--6--6--x---8-----8---L----|--5----5--5----5--5----|
--5----5--5----5--0----|--7--7--x---9-----9---L----|--5----5--5----5--5----|
--0----0--0----0--0----|--8--8--x--10----10---L----|--5----5--5----5--5----|
--0----0--0----0--0----|--8--8--x--10----10---L----|-----------------------|
--0----0--0----0--0----|---------------------------|-----------------------|


  E  E  Q    H           Q    E  Q    E  Q       E  E  E   Q     E   Q     
--7--7--7----7--------|--0----0--0----0--0----|---------------------------|
--7--7--7----7--------|--6----6--6----6--0----|--6--6--x---8-----8---L----|
--7--7--7----7--------|--5----5--5----5--0----|--7--7--x---9-----9---L----|
--7--7--7----7--------|--0----0--0----0--0----|--8--8--x--10----10---L----|
----------------------|--0----0--0----0--0----|--8--8--x--10----10---L----|
----------------------|--0----0--0----0--0----|---------------------------|


  Q    E  Q    E  Q       E  E  Q    H           Q    E  Q    E  Q     
--5----5--5----5--5----|--7--7--7----7--------|--0----0--0----0--0----|
--5----5--5----5--5----|--7--7--7----7--------|--6----6--6----6--0----|
--5----5--5----5--5----|--7--7--7----7--------|--5----5--5----5--0----|
--5----5--5----5--5----|--7--7--7----7--------|--0----0--0----0--0----|
-----------------------|----------------------|--0----0--0----0--0----|
-----------------------|----------------------|--0----0--0----0--0----|


  E  E  E   Q     E   Q       Q    E  Q    E  Q       E  E  Q    H         
---------------------------|--5----5--5----5--5----|--7--7--7----7--------|
--6--6--x---8-----8---L----|--5----5--5----5--5----|--7--7--7----7--------|
--7--7--x---9-----9---L----|--5----5--5----5--5----|--7--7--7----7--------|
--8--8--x--10----10---L----|--5----5--5----5--5----|--7--7--7----7--------|
--8--8--x--10----10---L----|-----------------------|----------------------|
---------------------------|-----------------------|----------------------|


  Q    E  Q    E  Q       E  E  E   Q     E   Q       Q    E  Q    E  Q     
--0----0--0----0--0----|---------------------------|--5----5--5----5--5----|
--6----6--6----6--0----|--6--6--x---8-----8---L----|--5----5--5----5--5----|
--5----5--5----5--0----|--7--7--x---9-----9---L----|--5----5--5----5--5----|
--0----0--0----0--0----|--8--8--x--10----10---L----|--5----5--5----5--5----|
--0----0--0----0--0----|--8--8--x--10----10---L----|-----------------------|
--0----0--0----0--0----|---------------------------|-----------------------|


  E  E  Q    H           Q    E  Q    E  Q       E  E  E   Q     E   Q     
--7--7--7----7--------|--0----0--0----0--0----|---------------------------|
--7--7--7----7--------|--6----6--6----6--0----|--6--6--x---8-----8---L----|
--7--7--7----7--------|--5----5--5----5--0----|--7--7--x---9-----9---L----|
--7--7--7----7--------|--0----0--0----0--0----|--8--8--x--10----10---L----|
----------------------|--0----0--0----0--0----|--8--8--x--10----10---L----|
----------------------|--0----0--0----0--0----|---------------------------|


  Q    E  Q    E  Q       Q    E  Q    E  Q       Q    E  Q    E  Q     
--0----0--0----0--0----|--0----0--0----0--0----|-----------------------|
--6----6--6----6--6----|--6----6--6----6--6----|--6----6--6----6--6----|
--5----5--5----5--5----|--5----5--5----5--5----|--7----7--7----7--7----|
--0----0--0----0--0----|--0----0--0----0--0----|--8----8--8----8--8----|
--0----0--0----0--0----|--0----0--0----0--0----|--8----8--8----8--8----|
--0----0--0----0--0----|--0----0--0----0--0----|-----------------------|


  E     E  Q     E     E  Q       Q     Q     Q    Q     
-------------------------------|------------------------|
--6---6g8--L-----8---8g5--L----|-------10----10---------|
--7---7g9--L-----9---9g6--L----|-------10----10---------|
--8--8g10--L----10--10g7--L----|------------------------|
--8--8g10--L----10--10g7--L----|------------------------|
-------------------------------|--0----------------L----|


  Q     Q     Q    Q       Q     Q     Q    Q       Q     Q     Q    Q     
------------------------|-------10----10---------|-------10----10---------|
-------10----10---------|-------10----10---------|-------10----10---------|
-------10----10---------|-------10----10---------|-------10----10---------|
------------------------|------------------------|------------------------|
------------------------|------------------------|------------------------|
--0----------------L----|--0----------------L----|--0----------------L----|


  Q    E  Q    E  Q       Q    E  Q    E  Q       Q    E  Q    E  Q     
--0----0--0----0--0----|--0----0--0----0--0----|-----------------------|
--6----6--6----6--6----|--6----6--6----6--6----|--6----6--6----6--6----|
--5----5--5----5--5----|--5----5--5----5--5----|--7----7--7----7--7----|
--0----0--0----0--0----|--0----0--0----0--0----|--8----8--8----8--8----|
--0----0--0----0--0----|--0----0--0----0--0----|--8----8--8----8--8----|
--0----0--0----0--0----|--0----0--0----0--0----|-----------------------|


  E     E  Q     E     E  Q       Q     Q     Q    Q     
-------------------------------|------------------------|
--6---6g8--L-----8---8g5--L----|-------10----10---------|
--7---7g9--L-----9---9g6--L----|-------10----10---------|
--8--8g10--L----10--10g7--L----|------------------------|
--8--8g10--L----10--10g7--L----|------------------------|
-------------------------------|--0----------------L----|


  Q     Q     Q    Q       Q     Q     Q    Q       Q     Q     Q    Q     
------------------------|-------10----10---------|-------10----10---------|
-------10----10---------|-------10----10---------|-------10----10---------|
-------10----10---------|-------10----10---------|-------10----10---------|
------------------------|------------------------|------------------------|
------------------------|------------------------|------------------------|
--0----------------L----|--0----------------L----|--0----------------L----|


  Q    E  Q    E  Q       E  E  Q    H           Q    E  Q    E  Q     
--5----5--5----5--5----|--7--7--7----7--------|--0----0--0----0--0----|
--5----5--5----5--5----|--7--7--7----7--------|--6----6--6----6--0----|
--5----5--5----5--5----|--7--7--7----7--------|--5----5--5----5--0----|
--5----5--5----5--5----|--7--7--7----7--------|--0----0--0----0--0----|
-----------------------|----------------------|--0----0--0----0--0----|
-----------------------|----------------------|--0----0--0----0--0----|


  E  E  E   Q    E  Q       Q    Q    E  E  E  E     E  E  Q    H         
-------------------------|-------5----5--5--5--5--|--7--7--7----7--------|
--6--6--x---8----L-------|-------5----5--5--5--5--|--7--7--7----7--------|
--7--7--x---9----L-------|-------5----5--5--5--5--|--7--7--7----7--------|
--8--8--x--10----L-------|-------5----5--5--5--5--|--7--7--7----7--------|
--8--8--x--10----L-------|------------------------|----------------------|
--------------------2----|--0---------------------|----------------------|


  Q    E  Q    E  Q       E  E  E   Q    E  Q       Q    Q    E  E  E  E   
--0----0--0----0--0----|-------------------------|-------5----5--5--5--5--|
--6----6--6----6--0----|--6--6--x---8----L-------|-------5----5--5--5--5--|
--5----5--5----5--0----|--7--7--x---9----L-------|-------5----5--5--5--5--|
--0----0--0----0--0----|--8--8--x--10----L-------|-------5----5--5--5--5--|
--0----0--0----0--0----|--8--8--x--10----L-------|------------------------|
--0----0--0----0--0----|--------------------2----|--0---------------------|


  E  E  Q    H           Q    E  Q    E  Q       E  E  E   Q     E   Q     
--7--7--7----7--------|--0----0--0----0--0----|---------------------------|
--7--7--7----7--------|--6----6--6----6--0----|--6--6--x---8-----8---L----|
--7--7--7----7--------|--5----5--5----5--0----|--7--7--x---9-----9---L----|
--7--7--7----7--------|--0----0--0----0--0----|--8--8--x--10----10---L----|
----------------------|--0----0--0----0--0----|--8--8--x--10----10---L----|
----------------------|--0----0--0----0--0----|---------------------------|


  Q    E  Q    E  Q       E  E  Q    H           Q    E  Q    E  Q     
--5----5--5----5--5----|--7--7--7----7--------|--0----0--0----0--0----|
--5----5--5----5--5----|--7--7--7----7--------|--6----6--6----6--0----|
--5----5--5----5--5----|--7--7--7----7--------|--5----5--5----5--0----|
--5----5--5----5--5----|--7--7--7----7--------|--0----0--0----0--0----|
-----------------------|----------------------|--0----0--0----0--0----|
-----------------------|----------------------|--0----0--0----0--0----|


  E  E  E   Q     E   Q       Q    E  Q    E  Q       E  E  Q    H         
---------------------------|--5----5--5----5--5----|--7--7--7----7--------|
--6--6--x---8-----8---L----|--5----5--5----5--5----|--7--7--7----7--------|
--7--7--x---9-----9---L----|--5----5--5----5--5----|--7--7--7----7--------|
--8--8--x--10----10---L----|--5----5--5----5--5----|--7--7--7----7--------|
--8--8--x--10----10---L----|-----------------------|----------------------|
---------------------------|-----------------------|----------------------|


  Q    E  Q    E  Q       E  E  E   Q     E   Q       Q    E  Q    E  Q     
--0----0--0----0--0----|---------------------------|--5----5--5----5--5----|
--6----6--6----6--0----|--6--6--x---8-----8---L----|--5----5--5----5--5----|
--5----5--5----5--0----|--7--7--x---9-----9---L----|--5----5--5----5--5----|
--0----0--0----0--0----|--8--8--x--10----10---L----|--5----5--5----5--5----|
--0----0--0----0--0----|--8--8--x--10----10---L----|-----------------------|
--0----0--0----0--0----|---------------------------|-----------------------|


  E  E  Q    H           Q    E  Q    E  Q       E  E  E   Q     E   Q     
--7--7--7----7--------|--0----0--0----0--0----|---------------------------|
--7--7--7----7--------|--6----6--6----6--0----|--6--6--x---8-----8---L----|
--7--7--7----7--------|--5----5--5----5--0----|--7--7--x---9-----9---L----|
--7--7--7----7--------|--0----0--0----0--0----|--8--8--x--10----10---L----|
----------------------|--0----0--0----0--0----|--8--8--x--10----10---L----|
----------------------|--0----0--0----0--0----|---------------------------|


  Q    E  Q    E  Q       E  E  Q    H           Q    E  Q    E  Q     
--5----5--5----5--5----|--7--7--7----7--------|--0----0--0----0--0----|
--5----5--5----5--5----|--7--7--7----7--------|--6----6--6----6--0----|
--5----5--5----5--5----|--7--7--7----7--------|--5----5--5----5--0----|
--5----5--5----5--5----|--7--7--7----7--------|--0----0--0----0--0----|
-----------------------|----------------------|--0----0--0----0--0----|
-----------------------|----------------------|--0----0--0----0--0----|


  E  E  E   Q     E   Q       Q    E  Q    E  Q       E  E  Q    H         
---------------------------|--5----5--5----5--5----|--7--7--7----7--------|
--6--6--x---8-----8---L----|--5----5--5----5--5----|--7--7--7----7--------|
--7--7--x---9-----9---L----|--5----5--5----5--5----|--7--7--7----7--------|
--8--8--x--10----10---L----|--5----5--5----5--5----|--7--7--7----7--------|
--8--8--x--10----10---L----|-----------------------|----------------------|
---------------------------|-----------------------|----------------------|


  Q    E  Q    E  Q       E  E  E   Q     E   Q       Q    E  Q    E  Q     
--0----0--0----0--0----|---------------------------|--0----0--0----0--0----|
--6----6--6----6--0----|--6--6--x---8-----8---L----|--6----6--6----6--6----|
--5----5--5----5--0----|--7--7--x---9-----9---L----|--5----5--5----5--5----|
--0----0--0----0--0----|--8--8--x--10----10---L----|--0----0--0----0--0----|
--0----0--0----0--0----|--8--8--x--10----10---L----|--0----0--0----0--0----|
--0----0--0----0--0----|---------------------------|--0----0--0----0--0----|


  Q    E  Q    E  Q       Q    E  Q    E  Q       E     E  Q     E     E  Q     
--0----0--0----0--0----|-----------------------|-------------------------------|
--6----6--6----6--6----|--6----6--6----6--6----|--6---6g8--L-----8---8g5--L----|
--5----5--5----5--5----|--7----7--7----7--7----|--7---7g9--L-----9---9g6--L----|
--0----0--0----0--0----|--8----8--8----8--8----|--8--8g10--L----10--10g7--L----|
--0----0--0----0--0----|--8----8--8----8--8----|--8--8g10--L----10--10g7--L----|
--0----0--0----0--0----|-----------------------|-------------------------------|


  Q     Q     Q    Q       Q     Q     Q    Q       Q     Q     Q    Q     
------------------------|------------------------|-------10----10---------|
-------10----10---------|-------10----10---------|-------10----10---------|
-------10----10---------|-------10----10---------|-------10----10---------|
------------------------|------------------------|------------------------|
------------------------|------------------------|------------------------|
--0----------------L----|--0----------------L----|--0----------------L----|


  Q     Q     Q    Q       Q    E  Q    E  Q       Q    E  Q    E  Q     
-------10----10---------|--0----0--0----0--0----|--0----0--0----0--0----|
-------10----10---------|--6----6--6----6--6----|--6----6--6----6--6----|
-------10----10---------|--5----5--5----5--5----|--5----5--5----5--5----|
------------------------|--0----0--0----0--0----|--0----0--0----0--0----|
------------------------|--0----0--0----0--0----|--0----0--0----0--0----|
--0----------------L----|--0----0--0----0--0----|--0----0--0----0--0----|


  Q    E  Q    E  Q       E     E  Q     E     E  Q     
-----------------------|-------------------------------|
--6----6--6----6--6----|--6---6g8--L-----8---8g5--L----|
--7----7--7----7--7----|--7---7g9--L-----9---9g6--L----|
--8----8--8----8--8----|--8--8g10--L----10--10g7--L----|
--8----8--8----8--8----|--8--8g10--L----10--10g7--L----|
-----------------------|-------------------------------|


  Q     Q     Q    Q       Q     Q     Q    Q       Q     Q     Q    Q     
------------------------|------------------------|-------10----10---------|
-------10----10---------|-------10----10---------|-------10----10---------|
-------10----10---------|-------10----10---------|-------10----10---------|
------------------------|------------------------|------------------------|
------------------------|------------------------|------------------------|
--0----------------L----|--0----------------L----|--0----------------L----|


  Q     Q     Q    Q       Q    E  Q    E  Q       E  E  Q    H         
-------10----10---------|--5----5--5----5--5----|--7--7--7----7--------|
-------10----10---------|--5----5--5----5--5----|--7--7--7----7--------|
-------10----10---------|--5----5--5----5--5----|--7--7--7----7--------|
------------------------|--5----5--5----5--5----|--7--7--7----7--------|
------------------------|-----------------------|----------------------|
--0----------------L----|-----------------------|----------------------|


  Q    E  Q    E  Q       E  E  E   Q    E  Q       Q    Q    E  E  E  E   
--0----0--0----0--0----|-------------------------|-------5----5--5--5--5--|
--6----6--6----6--0----|--6--6--x---8----L-------|-------5----5--5--5--5--|
--5----5--5----5--0----|--7--7--x---9----L-------|-------5----5--5--5--5--|
--0----0--0----0--0----|--8--8--x--10----L-------|-------5----5--5--5--5--|
--0----0--0----0--0----|--8--8--x--10----L-------|------------------------|
--0----0--0----0--0----|--------------------2----|--0---------------------|


  E  E  Q    H           Q    E  Q    E  Q       E  E  E   Q    E  Q     
--7--7--7----7--------|--0----0--0----0--0----|-------------------------|
--7--7--7----7--------|--6----6--6----6--0----|--6--6--x---8----L-------|
--7--7--7----7--------|--5----5--5----5--0----|--7--7--x---9----L-------|
--7--7--7----7--------|--0----0--0----0--0----|--8--8--x--10----L-------|
----------------------|--0----0--0----0--0----|--8--8--x--10----L-------|
----------------------|--0----0--0----0--0----|--------------------2----|


  Q    Q    E  E  E  E     E  E  Q    H           Q    E  Q    E  Q     
-------5----5--5--5--5--|--7--7--7----7--------|--0----0--0----0--0----|
-------5----5--5--5--5--|--7--7--7----7--------|--6----6--6----6--0----|
-------5----5--5--5--5--|--7--7--7----7--------|--5----5--5----5--0----|
-------5----5--5--5--5--|--7--7--7----7--------|--0----0--0----0--0----|
------------------------|----------------------|--0----0--0----0--0----|
--0---------------------|----------------------|--0----0--0----0--0----|


  E  E  E   Q     E   Q       Q    E  Q    E  Q       E  E  Q    H         
---------------------------|--5----5--5----5--5----|--7--7--7----7--------|
--6--6--x---8-----8---L----|--5----5--5----5--5----|--7--7--7----7--------|
--7--7--x---9-----9---L----|--5----5--5----5--5----|--7--7--7----7--------|
--8--8--x--10----10---L----|--5----5--5----5--5----|--7--7--7----7--------|
--8--8--x--10----10---L----|-----------------------|----------------------|
---------------------------|-----------------------|----------------------|


  Q    E  Q    E  Q       E  E  E   Q     E   Q       Q    E  Q    E  Q     
--0----0--0----0--0----|---------------------------|--5----5--5----5--5----|
--6----6--6----6--0----|--6--6--x---8-----8---L----|--5----5--5----5--5----|
--5----5--5----5--0----|--7--7--x---9-----9---L----|--5----5--5----5--5----|
--0----0--0----0--0----|--8--8--x--10----10---L----|--5----5--5----5--5----|
--0----0--0----0--0----|--8--8--x--10----10---L----|-----------------------|
--0----0--0----0--0----|---------------------------|-----------------------|


  E  E  Q    H           Q    E  Q    E  Q       E  E  E   Q     E   Q     
--7--7--7----7--------|--0----0--0----0--0----|---------------------------|
--7--7--7----7--------|--6----6--6----6--0----|--6--6--x---8-----8---L----|
--7--7--7----7--------|--5----5--5----5--0----|--7--7--x---9-----9---L----|
--7--7--7----7--------|--0----0--0----0--0----|--8--8--x--10----10---L----|
----------------------|--0----0--0----0--0----|--8--8--x--10----10---L----|
----------------------|--0----0--0----0--0----|---------------------------|


  Q    E  Q    E  Q       E  E  Q    H           Q    E  Q    E  Q     
--5----5--5----5--5----|--7--7--7----7--------|--0----0--0----0--0----|
--5----5--5----5--5----|--7--7--7----7--------|--6----6--6----6--0----|
--5----5--5----5--5----|--7--7--7----7--------|--5----5--5----5--0----|
--5----5--5----5--5----|--7--7--7----7--------|--0----0--0----0--0----|
-----------------------|----------------------|--0----0--0----0--0----|
-----------------------|----------------------|--0----0--0----0--0----|


  E  E  E   Q     E   Q       W                   W                 
---------------------------|-------------------|-------------------|
--6--6--x---8-----8---L----|-------------------|-------------------|
--7--7--x---9-----9---L----|-------------------|-------------------|
--8--8--x--10----10---L----|-------------------|-------------------|
--8--8--x--10----10---L----|-------------------|-------------------|
---------------------------|-------------------|-------------------|


  W                   W                   Q     Q     Q    Q     
-------------------|-------------------|------------------------|
-------------------|-------------------|-------10----10---------|
-------------------|-------------------|-------10----10---------|
-------------------|-------------------|------------------------|
-------------------|-------------------|------------------------|
-------------------|-------------------|------------------------|


  Q     Q     Q    Q       Q     Q     Q    Q       Q     Q     Q    Q     
------------------------|------------------------|------------------------|
-------10----10---------|-------10----10---------|-------10----10---------|
-------10----10---------|-------10----10---------|-------10----10---------|
------------------------|------------------------|------------------------|
------------------------|------------------------|------------------------|
------------------------|------------------------|------------------------|


  W                   W                   W                   W                 
-------------------|-------------------|-------------------|-------------------|
-------------------|-------------------|-------------------|-------------------|
-------------------|-------------------|-------------------|-------------------|
-------------------|-------------------|-------------------|-------------------|
-------------------|-------------------|-------------------|-------------------|
-------------------|-------------------|-------------------|-------------------|


  W                   W                   W                  
-------------------|-------------------|-------------------||
-------------------|-------------------|-------------------||
-------------------|-------------------|-------------------||
-------------------|-------------------|-------------------||
-------------------|-------------------|-------------------||
-------------------|-------------------|-------------------||











Acoustic II



     W                   W                   W                 
D||-------------------|-------------------|-------------------|
B||-------------------|-------------------|-------------------|
G||-------------------|-------------------|-------------------|
D||-------------------|-------------------|-------------------|
A||-------------------|-------------------|-------------------|
D||-------------------|-------------------|-------------------|


  W                   W                   W                   W                 
-------------------|-------------------|-------------------|-------------------|
-------------------|-------------------|-------------------|-------------------|
-------------------|-------------------|-------------------|-------------------|
-------------------|-------------------|-------------------|-------------------|
-------------------|-------------------|-------------------|-------------------|
-------------------|-------------------|-------------------|-------------------|


  W                   Q    E  Q    E  Q       E  E  Q    H         
-------------------|--5----5--5----5--5----|--7--7--7----7--------|
-------------------|--5----5--5----5--5----|--7--7--7----7--------|
-------------------|--5----5--5----5--5----|--7--7--7----7--------|
-------------------|--5----5--5----5--5----|--7--7--7----7--------|
-------------------|-----------------------|----------------------|
-------------------|-----------------------|----------------------|


  Q    E  Q    E  Q       E  E  E   Q     E   Q       Q    E  Q    E  Q     
--0----0--0----0--0----|---------------------------|--5----5--5----5--5----|
--6----6--6----6--0----|--6--6--x---8-----8---L----|--5----5--5----5--5----|
--5----5--5----5--0----|--7--7--x---9-----9---L----|--5----5--5----5--5----|
--0----0--0----0--0----|--8--8--x--10----10---L----|--5----5--5----5--5----|
--0----0--0----0--0----|--8--8--x--10----10---L----|-----------------------|
--0----0--0----0--0----|---------------------------|-----------------------|


  E  E  Q    H           Q    E  Q    E  Q       E  E  E   Q     E   Q     
--7--7--7----7--------|--0----0--0----0--0----|---------------------------|
--7--7--7----7--------|--6----6--6----6--0----|--6--6--x---8-----8---L----|
--7--7--7----7--------|--5----5--5----5--0----|--7--7--x---9-----9---L----|
--7--7--7----7--------|--0----0--0----0--0----|--8--8--x--10----10---L----|
----------------------|--0----0--0----0--0----|--8--8--x--10----10---L----|
----------------------|--0----0--0----0--0----|---------------------------|


  E  E  E  E    E  E  Q       E    Q    H        E   
---------------------------|------------------------|
---------------------------|------------------------|
---------------------------|------------------------|
-----0--3--5--5g7--5--3----|--3--3g5----7--------L--|
---------------------------|------------------------|
---------------------------|------------------------|


  E  E  E  E    E  E  Q       E    Q    H        E   
---------------------------|------------------------|
---------------------------|------------------------|
---------------------------|------------------------|
-----0--3--5--5g7--5--3----|--3--5g7----5--------L--|
---------------------------|------------------------|
---------------------------|------------------------|


  E  E  E  E    E  E  Q       E    Q    H        E   
---------------------------|------------------------|
---------------------------|------------------------|
---------------------------|------------------------|
-----0--3--5--5g7--5--3----|--3--3g5----7--------L--|
---------------------------|------------------------|
---------------------------|------------------------|


  E  E  E  E    E  E  Q       E    Q    H        E     Q    E  Q    E  Q     
---------------------------|------------------------|--5----5--5----5--5----|
---------------------------|------------------------|--5----5--5----5--5----|
---------------------------|------------------------|--5----5--5----5--5----|
-----0--3--5--5g7--5--3----|--3--5g7----5--------L--|--5----5--5----5--5----|
---------------------------|------------------------|-----------------------|
---------------------------|------------------------|-----------------------|


  E  E  Q    H           Q    E  Q    E  Q       E  E  E   Q     E   Q     
--7--7--7----7--------|--0----0--0----0--0----|---------------------------|
--7--7--7----7--------|--6----6--6----6--0----|--6--6--x---8-----8---L----|
--7--7--7----7--------|--5----5--5----5--0----|--7--7--x---9-----9---L----|
--7--7--7----7--------|--0----0--0----0--0----|--8--8--x--10----10---L----|
----------------------|--0----0--0----0--0----|--8--8--x--10----10---L----|
----------------------|--0----0--0----0--0----|---------------------------|


  Q    E  Q    E  Q       E  E  Q    H           Q    E  Q    E  Q     
--5----5--5----5--5----|--7--7--7----7--------|--0----0--0----0--0----|
--5----5--5----5--5----|--7--7--7----7--------|--6----6--6----6--0----|
--5----5--5----5--5----|--7--7--7----7--------|--5----5--5----5--0----|
--5----5--5----5--5----|--7--7--7----7--------|--0----0--0----0--0----|
-----------------------|----------------------|--0----0--0----0--0----|
-----------------------|----------------------|--0----0--0----0--0----|


  E  E  E   Q     E   Q       E  E  E  E    E  E  Q     
---------------------------|---------------------------|
--6--6--x---8-----8---L----|---------------------------|
--7--7--x---9-----9---L----|---------------------------|
--8--8--x--10----10---L----|-----0--3--5--5g7--5--3----|
--8--8--x--10----10---L----|---------------------------|
---------------------------|---------------------------|


  E    Q    H        E     E  E  E  E    E  E  Q       E    Q    H        E   
------------------------|---------------------------|------------------------|
------------------------|---------------------------|------------------------|
------------------------|---------------------------|------------------------|
--3--3g5----7--------L--|-----0--3--5--5g7--5--3----|--3--5g7----5--------L--|
------------------------|---------------------------|------------------------|
------------------------|---------------------------|------------------------|


  E  E  E  E    E  E  Q       E    Q    H        E   
---------------------------|------------------------|
---------------------------|------------------------|
---------------------------|------------------------|
-----0--3--5--5g7--5--3----|--3--3g5----7--------L--|
---------------------------|------------------------|
---------------------------|------------------------|


  E  E  E  E    E  E  Q       E    Q    H        E     Q    E  Q    E  Q     
---------------------------|------------------------|--0----0--0----0--0----|
---------------------------|------------------------|--6----6--6----6--6----|
---------------------------|------------------------|--5----5--5----5--5----|
-----0--3--5--5g7--5--3----|--3--5g7----5--------L--|--0----0--0----0--0----|
---------------------------|------------------------|--0----0--0----0--0----|
---------------------------|------------------------|--0----0--0----0--0----|


  Q    E  Q    E  Q       Q    E  Q    E  Q       E     E  Q     E     E  Q     
--0----0--0----0--0----|-----------------------|-------------------------------|
--6----6--6----6--6----|--6----6--6----6--6----|--6---6g8--L-----8---8g5--L----|
--5----5--5----5--5----|--7----7--7----7--7----|--7---7g9--L-----9---9g6--L----|
--0----0--0----0--0----|--8----8--8----8--8----|--8--8g10--L----10--10g7--L----|
--0----0--0----0--0----|--8----8--8----8--8----|--8--8g10--L----10--10g7--L----|
--0----0--0----0--0----|-----------------------|-------------------------------|


  Q     Q     Q    Q       Q     Q     Q    Q       Q     Q     Q    Q     
------------------------|------------------------|-------10----10---------|
-------10----10---------|-------10----10---------|-------10----10---------|
-------10----10---------|-------10----10---------|-------10----10---------|
------------------------|------------------------|------------------------|
------------------------|------------------------|------------------------|
--0----------------L----|--0----------------L----|--0----------------L----|


  Q     Q     Q    Q       Q    E  Q    E  Q       Q    E  Q    E  Q     
-------10----10---------|--0----0--0----0--0----|--0----0--0----0--0----|
-------10----10---------|--6----6--6----6--6----|--6----6--6----6--6----|
-------10----10---------|--5----5--5----5--5----|--5----5--5----5--5----|
------------------------|--0----0--0----0--0----|--0----0--0----0--0----|
------------------------|--0----0--0----0--0----|--0----0--0----0--0----|
--0----------------L----|--0----0--0----0--0----|--0----0--0----0--0----|


  Q    E  Q    E  Q       E     E  Q     E     E  Q     
-----------------------|-------------------------------|
--6----6--6----6--6----|--6---6g8--L-----8---8g5--L----|
--7----7--7----7--7----|--7---7g9--L-----9---9g6--L----|
--8----8--8----8--8----|--8--8g10--L----10--10g7--L----|
--8----8--8----8--8----|--8--8g10--L----10--10g7--L----|
-----------------------|-------------------------------|


  Q     Q     Q    Q       Q     Q     Q    Q       Q     Q     Q    Q     
------------------------|------------------------|-------10----10---------|
-------10----10---------|-------10----10---------|-------10----10---------|
-------10----10---------|-------10----10---------|-------10----10---------|
------------------------|------------------------|------------------------|
------------------------|------------------------|------------------------|
--0----------------L----|--0----------------L----|--0----------------L----|


  Q     Q     Q    Q       Q    E  Q    E  Q       E  E  Q    H         
-------10----10---------|--5----5--5----5--5----|--7--7--7----7--------|
-------10----10---------|--5----5--5----5--5----|--7--7--7----7--------|
-------10----10---------|--5----5--5----5--5----|--7--7--7----7--------|
------------------------|--5----5--5----5--5----|--7--7--7----7--------|
------------------------|-----------------------|----------------------|
--0----------------L----|-----------------------|----------------------|


  Q    E  Q    E  Q       E  E  E   Q    E  Q       Q    Q    E  E  E  E   
--0----0--0----0--0----|-------------------------|-------5----5--5--5--5--|
--6----6--6----6--0----|--6--6--x---8----L-------|-------5----5--5--5--5--|
--5----5--5----5--0----|--7--7--x---9----L-------|-------5----5--5--5--5--|
--0----0--0----0--0----|--8--8--x--10----L-------|-------5----5--5--5--5--|
--0----0--0----0--0----|--8--8--x--10----L-------|------------------------|
--0----0--0----0--0----|--------------------2----|--0---------------------|


  E  E  Q    H           Q    E  Q    E  Q       E  E  E   Q    E  Q     
--7--7--7----7--------|--0----0--0----0--0----|-------------------------|
--7--7--7----7--------|--6----6--6----6--0----|--6--6--x---8----L-------|
--7--7--7----7--------|--5----5--5----5--0----|--7--7--x---9----L-------|
--7--7--7----7--------|--0----0--0----0--0----|--8--8--x--10----L-------|
----------------------|--0----0--0----0--0----|--8--8--x--10----L-------|
----------------------|--0----0--0----0--0----|--------------------2----|


  Q    Q    E  E  E  E     E  E  Q    H           Q    E  Q    E  Q     
-------5----5--5--5--5--|--7--7--7----7--------|--0----0--0----0--0----|
-------5----5--5--5--5--|--7--7--7----7--------|--6----6--6----6--0----|
-------5----5--5--5--5--|--7--7--7----7--------|--5----5--5----5--0----|
-------5----5--5--5--5--|--7--7--7----7--------|--0----0--0----0--0----|
------------------------|----------------------|--0----0--0----0--0----|
--0---------------------|----------------------|--0----0--0----0--0----|


  E  E  E   Q     E   Q       Q    E  Q    E  Q       E  E  Q    H         
---------------------------|--5----5--5----5--5----|--7--7--7----7--------|
--6--6--x---8-----8---L----|--5----5--5----5--5----|--7--7--7----7--------|
--7--7--x---9-----9---L----|--5----5--5----5--5----|--7--7--7----7--------|
--8--8--x--10----10---L----|--5----5--5----5--5----|--7--7--7----7--------|
--8--8--x--10----10---L----|-----------------------|----------------------|
---------------------------|-----------------------|----------------------|


  Q    E  Q    E  Q       E  E  E   Q     E   Q       Q    E  Q    E  Q     
--0----0--0----0--0----|---------------------------|--5----5--5----5--5----|
--6----6--6----6--0----|--6--6--x---8-----8---L----|--5----5--5----5--5----|
--5----5--5----5--0----|--7--7--x---9-----9---L----|--5----5--5----5--5----|
--0----0--0----0--0----|--8--8--x--10----10---L----|--5----5--5----5--5----|
--0----0--0----0--0----|--8--8--x--10----10---L----|-----------------------|
--0----0--0----0--0----|---------------------------|-----------------------|


  E  E  Q    H           Q    E  Q    E  Q       E  E  E   Q     E   Q     
--7--7--7----7--------|--0----0--0----0--0----|---------------------------|
--7--7--7----7--------|--6----6--6----6--0----|--6--6--x---8-----8---L----|
--7--7--7----7--------|--5----5--5----5--0----|--7--7--x---9-----9---L----|
--7--7--7----7--------|--0----0--0----0--0----|--8--8--x--10----10---L----|
----------------------|--0----0--0----0--0----|--8--8--x--10----10---L----|
----------------------|--0----0--0----0--0----|---------------------------|


  Q    E  Q    E  Q       E  E  Q    H           Q    E  Q    E  Q     
--5----5--5----5--5----|--7--7--7----7--------|--0----0--0----0--0----|
--5----5--5----5--5----|--7--7--7----7--------|--6----6--6----6--0----|
--5----5--5----5--5----|--7--7--7----7--------|--5----5--5----5--0----|
--5----5--5----5--5----|--7--7--7----7--------|--0----0--0----0--0----|
-----------------------|----------------------|--0----0--0----0--0----|
-----------------------|----------------------|--0----0--0----0--0----|


  E  E  E   Q     E   Q       E  E  E  E    E  E  Q     
---------------------------|---------------------------|
--6--6--x---8-----8---L----|---------------------------|
--7--7--x---9-----9---L----|---------------------------|
--8--8--x--10----10---L----|-----0--3--5--5g7--5--3----|
--8--8--x--10----10---L----|---------------------------|
---------------------------|---------------------------|


  E    Q    H        E     E  E  E  E    E  E  Q       E    Q    H        E   
------------------------|---------------------------|------------------------|
------------------------|---------------------------|------------------------|
------------------------|---------------------------|------------------------|
--3--3g5----7--------L--|-----0--3--5--5g7--5--3----|--3--5g7----5--------L--|
------------------------|---------------------------|------------------------|
------------------------|---------------------------|------------------------|


  E  E  E  E    E  E  Q       E    Q    H        E   
---------------------------|------------------------|
---------------------------|------------------------|
---------------------------|------------------------|
-----0--3--5--5g7--5--3----|--3--3g5----7--------L--|
---------------------------|------------------------|
---------------------------|------------------------|


  E  E  E  E    E  E  Q       E    Q    H        E     Q    E  Q    E  Q     
---------------------------|------------------------|--0----0--0----0--0----|
---------------------------|------------------------|--6----6--6----6--6----|
---------------------------|------------------------|--5----5--5----5--5----|
-----0--3--5--5g7--5--3----|--3--5g7----5--------L--|--0----0--0----0--0----|
---------------------------|------------------------|--0----0--0----0--0----|
---------------------------|------------------------|--0----0--0----0--0----|


  Q    E  Q    E  Q       Q    E  Q    E  Q       E     E  Q     E     E  Q     
--0----0--0----0--0----|-----------------------|-------------------------------|
--6----6--6----6--6----|--6----6--6----6--6----|--6---6g8--L-----8---8g5--L----|
--5----5--5----5--5----|--7----7--7----7--7----|--7---7g9--L-----9---9g6--L----|
--0----0--0----0--0----|--8----8--8----8--8----|--8--8g10--L----10--10g7--L----|
--0----0--0----0--0----|--8----8--8----8--8----|--8--8g10--L----10--10g7--L----|
--0----0--0----0--0----|-----------------------|-------------------------------|


  Q     Q     Q    Q       Q     Q     Q    Q       Q     Q     Q    Q     
------------------------|------------------------|-------10----10---------|
-------10----10---------|-------10----10---------|-------10----10---------|
-------10----10---------|-------10----10---------|-------10----10---------|
------------------------|------------------------|------------------------|
------------------------|------------------------|------------------------|
--0----------------L----|--0----------------L----|--0----------------L----|


  Q     Q     Q    Q       Q    E  Q    E  Q       Q    E  Q    E  Q     
-------10----10---------|--0----0--0----0--0----|--0----0--0----0--0----|
-------10----10---------|--6----6--6----6--6----|--6----6--6----6--6----|
-------10----10---------|--5----5--5----5--5----|--5----5--5----5--5----|
------------------------|--0----0--0----0--0----|--0----0--0----0--0----|
------------------------|--0----0--0----0--0----|--0----0--0----0--0----|
--0----------------L----|--0----0--0----0--0----|--0----0--0----0--0----|


  Q    E  Q    E  Q       E     E  Q     E     E  Q     
-----------------------|-------------------------------|
--6----6--6----6--6----|--6---6g8--L-----8---8g5--L----|
--7----7--7----7--7----|--7---7g9--L-----9---9g6--L----|
--8----8--8----8--8----|--8--8g10--L----10--10g7--L----|
--8----8--8----8--8----|--8--8g10--L----10--10g7--L----|
-----------------------|-------------------------------|


  Q     Q     Q    Q       Q     Q     Q    Q       Q     Q     Q    Q     
------------------------|------------------------|-------10----10---------|
-------10----10---------|-------10----10---------|-------10----10---------|
-------10----10---------|-------10----10---------|-------10----10---------|
------------------------|------------------------|------------------------|
------------------------|------------------------|------------------------|
--0----------------L----|--0----------------L----|--0----------------L----|


  Q     Q     Q    Q       Q    E  Q    E  Q       E  E  Q    H         
-------10----10---------|--5----5--5----5--5----|--7--7--7----7--------|
-------10----10---------|--5----5--5----5--5----|--7--7--7----7--------|
-------10----10---------|--5----5--5----5--5----|--7--7--7----7--------|
------------------------|--5----5--5----5--5----|--7--7--7----7--------|
------------------------|-----------------------|----------------------|
--0----------------L----|-----------------------|----------------------|


  Q    E  Q    E  Q       E  E  E   Q    E  Q       Q    Q    E  E  E  E   
--0----0--0----0--0----|-------------------------|-------5----5--5--5--5--|
--6----6--6----6--0----|--6--6--x---8----L-------|-------5----5--5--5--5--|
--5----5--5----5--0----|--7--7--x---9----L-------|-------5----5--5--5--5--|
--0----0--0----0--0----|--8--8--x--10----L-------|-------5----5--5--5--5--|
--0----0--0----0--0----|--8--8--x--10----L-------|------------------------|
--0----0--0----0--0----|--------------------2----|--0---------------------|


  E  E  Q    H           Q    E  Q    E  Q       E  E  E   Q    E  Q     
--7--7--7----7--------|--0----0--0----0--0----|-------------------------|
--7--7--7----7--------|--6----6--6----6--0----|--6--6--x---8----L-------|
--7--7--7----7--------|--5----5--5----5--0----|--7--7--x---9----L-------|
--7--7--7----7--------|--0----0--0----0--0----|--8--8--x--10----L-------|
----------------------|--0----0--0----0--0----|--8--8--x--10----L-------|
----------------------|--0----0--0----0--0----|--------------------2----|


  Q    Q    E  E  E  E     E  E  Q    H           Q    E  Q    E  Q     
-------5----5--5--5--5--|--7--7--7----7--------|--0----0--0----0--0----|
-------5----5--5--5--5--|--7--7--7----7--------|--6----6--6----6--0----|
-------5----5--5--5--5--|--7--7--7----7--------|--5----5--5----5--0----|
-------5----5--5--5--5--|--7--7--7----7--------|--0----0--0----0--0----|
------------------------|----------------------|--0----0--0----0--0----|
--0---------------------|----------------------|--0----0--0----0--0----|


  E  E  E   Q     E   Q       Q    E  Q    E  Q       E  E  Q    H         
---------------------------|--5----5--5----5--5----|--7--7--7----7--------|
--6--6--x---8-----8---L----|--5----5--5----5--5----|--7--7--7----7--------|
--7--7--x---9-----9---L----|--5----5--5----5--5----|--7--7--7----7--------|
--8--8--x--10----10---L----|--5----5--5----5--5----|--7--7--7----7--------|
--8--8--x--10----10---L----|-----------------------|----------------------|
---------------------------|-----------------------|----------------------|


  Q    E  Q    E  Q       E  E  E   Q     E   Q       E  E  E  E    E  E  Q     
--0----0--0----0--0----|---------------------------|---------------------------|
--6----6--6----6--0----|--6--6--x---8-----8---L----|---------------------------|
--5----5--5----5--0----|--7--7--x---9-----9---L----|---------------------------|
--0----0--0----0--0----|--8--8--x--10----10---L----|-----0--3--5--5g7--5--3----|
--0----0--0----0--0----|--8--8--x--10----10---L----|---------------------------|
--0----0--0----0--0----|---------------------------|---------------------------|


  E    Q    H        E     E  E  E  E    E  E  Q       E    Q    H        E   
------------------------|---------------------------|------------------------|
------------------------|---------------------------|------------------------|
------------------------|---------------------------|------------------------|
--3--3g5----7--------L--|-----0--3--5--5g7--5--3----|--3--5g7----5--------L--|
------------------------|---------------------------|------------------------|
------------------------|---------------------------|------------------------|


  E  E  E  E    E  E  Q       E    Q    H        E   
---------------------------|------------------------|
---------------------------|------------------------|
---------------------------|------------------------|
-----0--3--5--5g7--5--3----|--3--3g5----7--------L--|
---------------------------|------------------------|
---------------------------|------------------------|


  E  E  E  E    E  E  Q       E    Q    H        E     W                 
---------------------------|------------------------|-------------------|
---------------------------|------------------------|-------------------|
---------------------------|------------------------|-------------------|
-----0--3--5--5g7--5--3----|--3--5g7----5--------L--|-------------------|
---------------------------|------------------------|-------------------|
---------------------------|------------------------|-------------------|


  W                   W                   W                 
-------------------|-------------------|-------------------|
-------------------|-------------------|-------------------|
-------------------|-------------------|-------------------|
-------------------|-------------------|-------------------|
-------------------|-------------------|-------------------|
-------------------|-------------------|-------------------|


  H        Q     Q        Q    H         Q        Q    H         Q     
----------------10----|--10-------------10----|--10-------------10----|
----------------10----|--10-------------10----|--10-------------10----|
----------------------|-----------------------|-----------------------|
----------------------|-----------------------|-----------------------|
----------------------|-----------------------|-----------------------|
----------------------|-----------------------|-----------------------|


   Q    H         Q        Q    H        Q       W                 
--10-------------10----|--10------------------|-------------------|
--10-------------10----|--10------------------|-------------------|
-----------------------|----------------------|-------------------|
-----------------------|----------------------|-------------------|
-----------------------|----------------------|-------------------|
-----------------------|----------------------|-------------------|


  H        E  Q    E     Q    H.              Q    E  Q    E  Q     
----------------------|--------------------|-----------------------|
-----------6-------6--|-------6------------|--6----5--1-------3----|
----------------------|--------------------|---------------2-------|
----------------------|--------------------|-----------------------|
----------------------|--------------------|-----------------------|
----------------------|--------------------|-----------------------|


  W                   W                  
-------------------|-------------------||
--L----------------|--L----------------||
-------------------|-------------------||
-------------------|-------------------||
-------------------|-------------------||
-------------------|-------------------||




Duration Legend
---------------
W - whole
H - half
Q - quarter
E - 8th
S - 16th
T - 32nd
X - 64th
. - note dotted
|-n-|  - n-tuplets


Tablature Legend
----------------
L - tied note
x - dead note
g - grace note
(n) - ghost note
> - accentuded note
NH - natural harmonic
AH - artificial harmonic
TH - tapped harmonic
SH - semi harmonic
PH - pitch harmonic
h - hammer on
p - pull off
b - bend
br - bendRelease
pb - preBend
pbr - preBendRelease
brb - bendReleaseBend
\n/ - tremolo bar dip
\n - tremolo bar dive
-/n - tremolo bar Release up
/n\ - tremolo bar inverted dip
/n - tremolo bar return
-\n - tremolo bar Release down
S - shift slide
s - legato slide
/ -  slide into from below or out of upwards
\ -  slide into from above or out of downwards
~ - vibrato
W - wide vibrato
tr - trill
TP - tremolo picking
T - tapping
S - slap
P - pop
< - fade in
^ - brush up
v - brush down
comments
We did not receive enough feedback on this tab! Please rate:
print report bad tab
1 2 3 4 5
I want to post or [tab]
guest
You may want to rate the tab now too:
select rating
Please do not post tabs as comments. Select "correction" instead!