Oops, an error
Loading. Please wait.

Chakithaya Tab

7,946 views 25 this week
1 commentread comment
1 2 3 4 5
worth learning
x 2
add to favorites launch autoscroll
font size
0
reset
Autoscroll
+/-
esc
set tempo
stop
Contributor
Difficulty
Tuning
intermediate
D# G# C# F# A# D#
WARNING: You are trying to view
                                    content from Ultimate-Guitar.com
                                    in an unauthorized application,
                                    which is prohibited.

                                    Please use an official Ultimate
                                    Guitar Tabs application for iPhone,
                                    iPad or Android to access legitimate
                                    chords, guitar, bass, and drum tabs
                                    from Ultimate-Guitar.com database.

                                    Type "ultimate guitar tabs" in Apple
                                    App Store's or Android Market's
                                    search to find the application.
-------------------------------------------------------------------------------
                             Chakithaya - Nemesis
-------------------------------------------------------------------------------
Tabbed by: Vidula
Email: vidula@live.com

Tuning: Eb (Half step down


Intro (Rythm):
   E5                  D5  C5  D5  B5  C5  B5  A5   E5        E5
eb|---------------------0------------------------------------------------|
Bb|---------------------3------------------------------------------------|
Gb|---------------------2---5---7---4---5---4---2------------------------|
Db|-1-(1)(1)--1-(1)(1)------5---7---4---5---4---2---1(1)(1)---1(1)(1)----|
Ab|-1-(1)(1)--1-(1)(1)------3---5---2---3---2---0---1(1)(1)---1(1)(1)----|
Eb|-0-(0)(0)--0-(0)(0)------------------------------0(0)(0)---0(0)(0)----| x2


Verse1 (Rythm):
   E5                  D5  C5  D5  B5  C5  B5  A5   E5        E5
eb|---------------------0------------------------------------------------|
Bb|---------------------3------------------------------------------------|
Gb|---------------------2---5---7---4---5---4---2------------------------|
Db|-1-(1)(1)--1-(1)(1)------5---7---4---5---4---2---1(1)(1)---1(1)(1)----|
Ab|-1-(1)(1)--1-(1)(1)------3---5---2---3---2---0---1(1)(1)---1(1)(1)----|
Eb|-0-(0)(0)--0-(0)(0)------------------------------0(0)(0)---0(0)(0)----| x4

E5      D5   C5   D5    B5  C5 B5 A5 G5 E5
Seyavak vath hada thula maa novana   lese,
E5      D5   C5   D5    B5  C5 B5 A5 G5 E5
Maayavak vee oba sithuwam makuwe     kese,
E5      D5   C5   D5    B5  C5 B5 A5 G5 E5
Seyavak vath hada thula maa novana   lese,
E5      D5   C5   D5    B5  C5 B5 A5 G5 E5
Maayavak vee oba sithuwam makuwe     kese,


Interlude (Lead):
    C              D             Em
eb|-------0--------------2------------0---0---3---2------|
Bb|-----1---1----------3---3--------0---0---0---0---0----|
Gb|---0-------0------2-------2----0----------------------|
Db|-------------2--0===========0-------------------------|
Ab|-3========--------------------------------------------|
Eb|------------------------------0-----------------------|

    C              D             Em
eb|-------0--------------2------------0-----0------------|
Bb|-----1---1----------3---3--------0-----0--------------|
Gb|---0-------0------2-------2----0-----0----------------|
Db|-------------2--0===========0-------------------------|
Ab|-3========--------------------------------------------|
Eb|------------------------------0-----------------------|

Interlude (Rythm):

C          D            Em
Chakithaya vath nathida navathuyee,
C          D          Em
Mathakaya kelesadoo Miyadunee,

Chorus:

Em
Hada davunaa,
C        D
Kandulee gilunaa,
C
Nethu nivunaa,
D      B
Andure ethunaa,
        Em
Whoah!, Nivunaa,
C     D
Lokee Davunaa,
C           D       Em
Oba nimavuu sihinee bindunaa.


Verse 2(Rythm):

   E5                  D5  C5  D5  B5  C5  B5  A5   E5        E5
eb|---------------------0------------------------------------------------|
Bb|---------------------3------------------------------------------------|
Gb|---------------------2---5---7---4---5---4---2------------------------|
Db|-1-(1)(1)--1-(1)(1)------5---7---4---5---4---2---1(1)(1)---1(1)(1)----|
Ab|-1-(1)(1)--1-(1)(1)------3---5---2---3---2---0---1(1)(1)---1(1)(1)----|
Eb|-0-(0)(0)--0-(0)(0)------------------------------0(0)(0)---0(0)(0)----| x4

E5          D5   C5   D5    B5  C5 B5 A5 G5 E5
Kandulallak vath netha thula maa norandena se.
E5          D5   C5   D5  B5  C5 B5 A5 G5 E5
Magey lova gini davenaa   yali nonivena se.
E5          D5   C5   D5    B5  C5 B5 A5 G5 E5
Kandulallak vath netha thula maa norandena se.
E5          D5   C5   D5  B5  C5 B5 A5 G5 E5
Magey lova gini davenaa   yali nonivena se.

Interlude (Lead):
    C              D             Em
eb|-------0--------------2------------0---0---3---2------|
Bb|-----1---1----------3---3--------0---0---0---0---0----|
Gb|---0-------0------2-------2----0----------------------|
Db|-------------2--0===========0-------------------------|
Ab|-3========--------------------------------------------|
Eb|------------------------------0-----------------------|

    C              D             Em
eb|-------0--------------2------------0-----0------------|
Bb|-----1---1----------3---3--------0-----0--------------|
Gb|---0-------0------2-------2----0-----0----------------|
Db|-------------2--0===========0-------------------------|
Ab|-3========--------------------------------------------|
Eb|------------------------------0-----------------------|

Interlude (Rythm):

C          D            Em
Chakithaya vath nathida navathuyee,
C          D          Em
Mathakaya kelesadoo Miyadunee,

Chorus:

Em
Hada davunaa,
C        D
Kandulee gilunaa,
C
Nethu nivunaa,
D      B
Andure ethunaa,
        Em
Whoah!, Nivunaa,
C     D
Lokee Davunaa,
C           D       Em
Oba nimavuu sihinee bindunaa.

Solo: (danne na..)


Bridge (Rythm):

Em          C
Nimeshayak
          D
viya apey lookey
C              D            Em
samanalayin se piyambuuwath edaa
        Em7*
chapala hangum
    Am7 D
obe maa davuyee
C            D       Em
maayavee naa ma yali bandenne
C        D           Asus2
maayavee naa ma yali bandenne

Chorus + Outro:

Em
Hada davunaa,
C        D
Kandulee gilunaa,
C
Nethu nivunaa,
D      B
Andure ethunaa,
        Em
Whoah!, Nivunaa,
C     D
Lokee Davunaa,
C           D       Em
Oba nimavuu sihinee bindunaa.
Em
Hada davunaa,
C        D
Kandulee gilunaa,
C
Nethu nivunaa,
D      B
Andure ethunaa,
        Em
Whoah!, Nivunaa,
C     D
Lokee Davunaa,
C           D       Em
Oba nimavuu sihinee bindunaa.
C           D       Em
Oba nimavuu sihinee bindunaa.
C           D       Em
Oba nimavuu sihinee bindunaa.
C           D       Em
Oba nimavuu sihinee bindunaa.




************************************

| /   slide up
| \   slide down
| h   hammer-on
| p   pull-off
| ~   vibrato
| +   harmonic
| x   Mute note
| b   Bend
| pb  Pre-bend
| br  Bend release
| pbr Pre-bend release
| brb Bend release bend

************************************
comments
We did not receive enough feedback on this tab! Please rate:
1 2 3 4 5
1 comment total.
0 reply
zhacker4ever wrote on December 19 2013, 01:34 am

SHOULD BE:

Intro (Rythm):

 E5                  D5  C5  D5  B5  C5  B5  A5   E5        E5
eb|---------------------0------------------------------------------------|
Bb|---------------------3------------------------------------------------|
Gb|---------------------2---5---7---4---5---4---2------------------------|
Db|-2-(2)(2)--2-(2)(2)------5---7---4---5---4---2---2(2)(2)---2(2)(2)----|
Ab|-2-(2)(2)--2-(2)(2)------3---5---2---3---2---0---2(2)(2)---2(2)(2)----|
Eb|-0-(0)(0)--0-(0)(0)------------------------------0(0)(0)---0(0)(0)----| x2

I want to post or [tab]
guest
You may want to rate the tab now too:
select rating
Please do not post tabs as comments. Select "correction" instead!