Oops, an error
Loading. Please wait.

A Future Uncertain Tab

ver1
ver1

Whole song

Interactive

More versions @911Tabs.com
1,263 views 1 this week
no commentswrite comment
1 2 3 4 5
excellent!
x 1
Autoscroll
+/-
esc
set tempo
stop
Contributor
Hey! There's an official Ultimate Guitar app which is ideal
for learning songs when you're away from computer. Get the app
WARNING: You are trying to view
                                    content from Ultimate-Guitar.com
                                    in an unauthorized application,
                                    which is prohibited.

                                    Please use an official Ultimate
                                    Guitar Tabs application for iPhone,
                                    iPad or Android to access legitimate
                                    chords, guitar, bass, and drum tabs
                                    from Ultimate-Guitar.com database.

                                    Type "ultimate guitar tabs" in Apple
                                    App Store's or Android Market's
                                    search to find the application.
Tuning: A#D#G#C#F#A#D
Tempo: 170
Clean Intro:

D#||------------------------|--------------------------|
A#||-------------------0----|--L--------------------0--|
F#||-----------3------------|-----3--------------3-----|
C#||--------2-------2-------|--------2--------2--------|
G#||-----4------------------|-----------4--------------|
D#||--2---------------------|--------------6-----------|
A#||------------------------|--------------------------|


   ^        ^           ^            ^           ^          
   Q.       Q      E    Q        E   Q      E    H          
------------------------------|----------------------------|
------------------------------|----------------------------|
------------------------------|-----(7)--------------------|
------------9----------(7)----|--L---7----------(5)--------|
---9--------9-----------7-----|--L---7------5----5---------|
---7--------7------5----5-----|--L---5------3----3---------|
--(7)------(7)----(3)---------|------------(3)--(3)--------|


                                                      ^      ^     v         
  E  E  E  Q    E  Q       E  E  E  E  E  E  E  E     Q.     Q     E   Q     
------------------------|--------------------------|------------------------|
-------------------0----|--L--------------------0--|------------------------|
-----------3------------|-----3--------------3-----|--4------4---------2----|
--------2-------2-------|--------2--------2--------|--4------4----(4)--4----|
-----4------------------|-----------4--------------|--2------2-----2---0----|
--2---------------------|--------------6-----------|------------------------|
------------------------|--------------------------|------------------------|


                         ^                                 
  E  E   E    E     E    Q.         E  E  E  Q    E  Q     
---------------------------------|------------------------|
------------------------(7)------|-------------------0----|
--L----------(7)s--(9)---6-------|-----------3------------|
--L--4--(0)--(7)s--(9)---6-------|--------2-------2-------|
--L--0--(0)---5s----7----4-------|-----4------------------|
---------------------------------|--2---------------------|
---------------------------------|------------------------|


                              ^        ^           ^      
  E  E  E  E  E  E  E  E      Q.       Q      E    Q      
--------------------------|------------------------------|
--L--------------------0--|------------------------------|
-----3--------------3-----|------------------------------|
--------2--------2--------|------------9----------(7)----|
-----------4--------------|---9--------9-----------7-----|
--------------6-----------|---7--------7------5----5-----|
--------------------------|--(7)------(7)----(3)---------|


      ^           ^                                   
  E   Q      E    H            E  E  E  Q    E  Q     
----------------------------|------------------------|
----------------------------|-------------------0----|
-----(7)--------------------|-----------3------------|
--L---7----------(5)--------|--------2-------2-------|
--L---7------5----5---------|-----4------------------|
--L---5------3----3---------|--2---------------------|
------------(3)--(3)--------|------------------------|


                             ^      ^     v         
  E  E  E  E  E  E  E  E     Q.     Q     E   Q     
--------------------------|------------------------|
--L--------------------0--|------------------------|
-----3--------------3-----|--4------4---------2----|
--------2--------2--------|--4------4----(4)--4----|
-----------4--------------|--2------2-----2---0----|
--------------6-----------|------------------------|
--------------------------|------------------------|


                         ^                                 
  E  E   E    E     E    Q.         E  E  E  Q    E  Q     
---------------------------------|------------------------|
------------------------(7)------|-------------------0----|
--L----------(7)s--(9)---6-------|-----------3------------|
--L--4--(0)--(7)s--(9)---6-------|--------2-------2-------|
--L--0--(0)---5s----7----4-------|-----4------------------|
---------------------------------|--2---------------------|
---------------------------------|------------------------|


                              ^        ^           ^      
  E  E  E  E  E  E  E  E      Q.       Q      E    Q      
--------------------------|------------------------------|
--L--------------------0--|------------------------------|
-----3--------------3-----|------------------------------|
--------2--------2--------|------------9----------(7)----|
-----------4--------------|---9--------9-----------7-----|
--------------6-----------|---7--------7------5----5-----|
--------------------------|--(7)------(7)----(3)---------|


      ^           ^                                   
  E   Q      E    H            E  E  E  Q    E  Q     
----------------------------|------------------------|
----------------------------|-------------------0----|
-----(7)--------------------|-----------3------------|
--L---7----------(5)--------|--------2-------2-------|
--L---7------5----5---------|-----4------------------|
--L---5------3----3---------|--2---------------------|
------------(3)--(3)--------|------------------------|


                             ^      ^     v         
  E  E  E  E  E  E  E  E     Q.     Q     E   Q     
--------------------------|------------------------|
--L--------------------0--|------------------------|
-----3--------------3-----|--4------4---------2----|
--------2--------2--------|--4------4----(4)--4----|
-----------4--------------|--2------2-----2---0----|
--------------6-----------|------------------------|
--------------------------|------------------------|


                         ^                                 
  E  E   E    E     E    Q.         E  E  E  Q    E  Q     
---------------------------------|------------------------|
------------------------(7)------|-------------------0----|
--L----------(7)s--(9)---6-------|-----------3------------|
--L--4--(0)--(7)s--(9)---6-------|--------2-------2-------|
--L--0--(0)---5s----7----4-------|-----4------------------|
---------------------------------|--2---------------------|
---------------------------------|------------------------|


                              ^        ^           ^      
  E  E  E  E  E  E  E  E      Q.       Q      E    Q      
--------------------------|------------------------------|
--L--------------------0--|------------------------------|
-----3--------------3-----|------------------------------|
--------2--------2--------|------------9----------(7)----|
-----------4--------------|---9--------9-----------7-----|
--------------6-----------|---7--------7------5----5-----|
--------------------------|--(7)------(7)----(3)---------|


      ^           ^                                   
  E   Q      E    H            E  E  E  Q    E  Q     
----------------------------|------------------------|
----------------------------|-------------------0----|
-----(7)--------------------|-----------3------------|
--L---7----------(5)--------|--------2-------2-------|
--L---7------5----5---------|-----4------------------|
--L---5------3----3---------|--2---------------------|
------------(3)--(3)--------|------------------------|


                             ^      ^     v         
  E  E  E  E  E  E  E  E     Q.     Q     E   Q     
--------------------------|------------------------|
--L--------------------0--|------------------------|
-----3--------------3-----|--4------4---------2----|
--------2--------2--------|--4------4----(4)--4----|
-----------4--------------|--2------2-----2---0----|
--------------6-----------|------------------------|
--------------------------|------------------------|


                         ^          ^  v  ^  ^    ^  ^  v   
  E  E   E    E     E    Q.         E  E  E  Q    E  E  E   
---------------------------------|-------------------------|
------------------------(7)------|-----------0-------------|
--L----------(7)s--(9)---6-------|--4--4--4--4----4--4--4--|
--L--4--(0)--(7)s--(9)---6-------|--4--4--4--4----4--4--4--|
--L--0--(0)---5s----7----4-------|--2--------2----2--2-----|
---------------------------------|-------------------------|
---------------------------------|-------------------------|


  ^  ^    v  ^  v   ^                                                          
  E  Q    E  E  E   Q        E  E  E  Q    E  Q       E  E  E  E  E  E  E  E   
--------------------------|------------------------|-----------0--------------|
-----0--------------------|-----------0------------|--------------0-----------|
--4--4----4--4--4--(4)----|--------2-------2-------|--------2--------2--------|
--4--4----4--4--4---4-----|-----3-------------3----|-----3--------------3-----|
--2--2----2--2------2-----|------------------------|-----------------------3--|
--------------------------|--1---------------------|--1-----------------------|
--------------------------|------------------------|--------------------------|


  ^  v  ^  ^    ^  ^  v     ^  ^    v  ^  v  ^  v                            
  E  E  E  Q    E  E  E     E  Q    E  E  E  E  E     E  E  E  Q    E  Q     
-------------------------|-------------------------|------------------------|
-----------0-------------|-----0-------------------|-----------0------------|
--4--4--4--4----4--4--4--|--4--4----4--4--4--4--4--|--------2-------2-------|
--4--4--4--4----4--4--4--|--4--4----4--4--4--4--4--|-----3-------------3----|
--2--------2----2--2-----|--2--2----2--2-----------|------------------------|
-------------------------|-------------------------|--1---------------------|
-------------------------|-------------------------|------------------------|


                                 ^  v  ^  ^    ^  ^  v   
  E  E   E  E  E  E   E   E      E  E  E  Q    E  E  E   
--------------------------7---|-------------------------|
---------------7---------(0)--|-----------0-------------|
------------9-----9-----------|--4--4--4--4----4--4--4--|
-----9--10-----------10-------|--4--4--4--4----4--4--4--|
------------------------------|--2--------2----2--2-----|
--8---------------------------|-------------------------|
------------------------------|-------------------------|


  ^  ^    v  ^  v   ^                                                          
  E  Q    E  E  E   Q        E  E  E  Q    E  Q       E  E  E  E  E  E  E  E   
--------------------------|------------------------|-----------0--------------|
-----0--------------------|-----------0------------|--------------0-----------|
--4--4----4--4--4--(4)----|--------2-------2-------|--------2--------2--------|
--4--4----4--4--4---4-----|-----3-------------3----|-----3--------------3-----|
--2--2----2--2------2-----|------------------------|-----------------------3--|
--------------------------|--1---------------------|--1-----------------------|
--------------------------|------------------------|--------------------------|


  ^  v  ^  ^    ^  ^  v     ^  ^    v  ^  v   ^                               
  E  E  E  Q    E  E  E     E  Q    E  E  E   Q        E  E  E  Q    E  Q     
-------------------------|--------------------------|------------------------|
-----------0-------------|-----0--------------------|-----------0------------|
--4--4--4--4----4--4--4--|--4--4----4--4--4--(4)----|--------2-------2-------|
--4--4--4--4----4--4--4--|--4--4----4--4--4---4-----|-----3-------------3----|
--2--------2----2--2-----|--2--2----2--2------2-----|------------------------|
-------------------------|--------------------------|--1---------------------|
-------------------------|--------------------------|------------------------|


  E  E   E  E  E  E   E   E      E  E   E  E  E  E   E   E    
--------------------------7---|--------------------------7---|
---------------7---------(0)--|---------------7---------(0)--|
------------9-----9-----------|------------9-----9-----------|
-----9--10-----------10-------|-----9--10-----------10-------|
------------------------------|------------------------------|
--8---------------------------|--8---------------------------|
------------------------------|------------------------------|


  E  E   E  E  E  E   E   E      E  E   E  E  E  E   E   E    
--------------------------7---|--------------------------7---|
---------------7---------(0)--|---------------7---------(0)--|
------------9-----9-----------|------------9-----9-----------|
-----9--10-----------10-------|-----9--10-----------10-------|
------------------------------|------------------------------|
--8---------------------------|--8---------------------------|
------------------------------|------------------------------|


  E   E    E   E   E    E   E   E       E   E   E    E   E   E   E  E   
------------------------------------|----------------------------------|
------------------------------------|----------------------------------|
------------------------------------|----------------------------------|
------------------------------------|----------------------------------|
--3--(3)--(3)--3--(3)--(3)--3--(3)--|--(3)--3--(3)--(3)--5--(5)--5--5--|
------------------------------------|----------------------------------|
------------------------------------|----------------------------------|


  E   E    E   E   E    E   E   E       E   E   E    E   E   E   E  E   
------------------------------------|----------------------------------|
------------------------------------|----------------------------------|
------------------------------------|----------------------------------|
------------------------------------|----------------------------------|
--3--(3)--(3)--3--(3)--(3)--3--(3)--|--(3)--3--(3)--(3)--5--(5)--5--5--|
------------------------------------|----------------------------------|
------------------------------------|----------------------------------|


  E   E    E   E   E    E   E   E       E   E   E    E   E   E   E  E   
------------------------------------|----------------------------------|
------------------------------------|----------------------------------|
------------------------------------|----------------------------------|
------------------------------------|----------------------------------|
--3--(3)--(3)--3--(3)--(3)--3--(3)--|--(3)--3--(3)--(3)--5--(5)--5--5--|
------------------------------------|----------------------------------|
------------------------------------|----------------------------------|


  E   E    E   E   E    E   E   E       E   E   E    E   H                     
------------------------------------|-----------------------------|-----|-----|
------------------------------------|-----------------------------|-----|-----|
------------------------------------|-----------------------------|-----|-----|
------------------------------------|-----------------------------|-----|-----|
--3--(3)--(3)--3--(3)--(3)--3--(3)--|--(3)--3--(3)--(3)-----------|-----|-----|
------------------------------------|-----------------------------|-----|-----|
------------------------------------|-----------------------------|-----|-----|

Distorted:

               PM PM PM PM PM                                
      H        S  S  S  S  S  E.     Q    E    H         E   
D#||------------------------------|-------------------------|
A#||------------------------------|-------------------------|
F#||------------------------------|-------------------------|
C#||-----------x--x--x--x--x------|--9----7S--10~--------L--|
G#||-----------x--x--x--x--x------|-------------------------|
D#||-----------7--7--7--7--7------|--7----5S---8~--------L--|
A#||-----------0--0--0--0--0------|-------------------------|


  PM PM PM PM PM PM PM PM PM PM    PM PM PM PM                               
  S  S  S  S  S  S  S  S  S  S  E  S  S  S  S     Q    E    Q    E    E  E   
-----------------------------------------------|----------------------------|
-----------------------------------------------|----------------------------|
-----------------------------------------------|----------------------------|
-----------------------------------------------|--9----7S--10----7S--10-----|
-----------------------------------------------|----------------------------|
--------------------------------2--------------|--7----5S---8----5S---8-----|
--0--0--0--0--0--0--0--0--0--0--0--0--0--0--0--|-------------------------0--|


       PM PM                                          
  Q    S  S  Q    E  E  E     Q    E    H         E   
---------------------------|-------------------------|
---------------------------|-------------------------|
---------------------------|-------------------------|
------------------------7--|--9----7S--10~--------L--|
-------------3----4--------|-------------------------|
--2----------1----2--2--5--|--7----5S---8~--------L--|
--L----0--0----------0-----|-------------------------|


  PM PM PM PM PM PM PM PM PM PM    PM PM PM PM                               
  S  S  S  S  S  S  S  S  S  S  E  S  S  S  S     Q    E    Q    E    E  E   
-----------------------------------------------|----------------------------|
-----------------------------------------------|----------------------------|
-----------------------------------------------|----------------------------|
-----------------------------------------------|--9----7S--10----7S--10-----|
-----------------------------------------------|----------------------------|
--------------------------------2--------------|--7----5S---8----5S---8-----|
--0--0--0--0--0--0--0--0--0--0--0--0--0--0--0--|-------------------------0--|


       PM PM PM PM PM PM PM PM PM PM PM PM                            
  Q    S  S  S  S  S  S  S  S  S  S  S  S     Q    E    H         E   
-------------------------------------------|-------------------------|
-------------------------------------------|-------------------------|
-------------------------------------------|-------------------------|
-------------------------------------------|--9----7S--10~--------L--|
-------------------------------------------|-------------------------|
--2----------------------------------------|--7----5S---8~--------L--|
--L----7--6--5--0--6--5--4--0--5--4--3--0--|-------------------------|


  PM PM PM PM PM PM PM PM PM PM    PM PM PM PM                               
  S  S  S  S  S  S  S  S  S  S  E  S  S  S  S     Q    E    Q    E    E  E   
-----------------------------------------------|----------------------------|
-----------------------------------------------|----------------------------|
-----------------------------------------------|----------------------------|
-----------------------------------------------|--9----7S--10----7S--10-----|
-----------------------------------------------|----------------------------|
--------------------------------2--------------|--7----5S---8----5S---8-----|
--0--0--0--0--0--0--0--0--0--0--0--0--0--0--0--|-------------------------0--|


       PM PM                                          
  Q    S  S  Q    E  E  E     Q    E    H         E   
---------------------------|-------------------------|
---------------------------|-------------------------|
---------------------------|-------------------------|
------------------------7--|--9----7S--10~--------L--|
-------------3----4--------|-------------------------|
--2----------1----2--2--5--|--7----5S---8~--------L--|
--L----0--0----------0-----|-------------------------|


  PM PM PM PM PM PM PM PM PM PM    PM PM PM PM                               
  S  S  S  S  S  S  S  S  S  S  E  S  S  S  S     Q    E    Q    E    E  E   
-----------------------------------------------|----------------------------|
-----------------------------------------------|----------------------------|
-----------------------------------------------|----------------------------|
-----------------------------------------------|--9----7S--10----7S--10-----|
-----------------------------------------------|----------------------------|
--------------------------------2--------------|--7----5S---8----5S---8-----|
--0--0--0--0--0--0--0--0--0--0--0--0--0--0--0--|-------------------------0--|


       PM PM                  PM PM    PM              PM    PM    PM           
  Q    S  S  Q    E  E  E     E  E  E  E  H            E  E  E  E  E  E  E  E   
---------------------------|------------------------|--------------------------|
---------------------------|------------------------|--------------------------|
---------------------------|------------------------|--------------------------|
---------------------------|------------------------|--------------------------|
-------------3----4--------|--------------9\--------|--------------------------|
--2----------1----2--2-----|--------------7\--------|-----3-----5-----6--5--3--|
--L----0--0----------0--1--|--0--0-----0------------|--0--1--0--3--0--4--3--1--|


  PM PM PM                    PM    PM    PM           
  S  S  E  E  E  H            E  E  E  E  E  E  E  E   
---------------------------|--------------------------|
---------------------------|--------------------------|
---------------------------|--------------------------|
---------------------------|--------------------------|
-----------------8\--------|--------------------------|
-----------------7\--------|-----3-----5-----6--5--3--|
--0--0--0-----0------------|--0--1--0--3--0--4--3--1--|


  PM PM PM                     PM    PM    PM           
  S  S  E  E  E   H            E  E  E  E  E  E  E  E   
----------------------------|--------------------------|
----------------------------|--------------------------|
----------------------------|--------------------------|
----------------------------|--------------------------|
-----------------10\--------|--------------------------|
------------------7\--------|-----3-----5-----6--5--3--|
--0--0--0-----0-------------|--0--1--0--3--0--4--3--1--|


  PM PM PM                    PM    PM    PM             PM PM    PM            
  S  S  E  E  E  H            E  E  E  E  E  E  E  E     E  E  E  E  H          
---------------------------|--------------------------|------------------------|
---------------------------|--------------------------|------------------------|
---------------------------|--------------------------|------------------------|
---------------------------|--------------------------|------------------------|
-----------------9\--------|--------------------------|--------------9\--------|
-----------------7\--------|-----3-----5-----6--5--3--|--------------7\--------|
--0--0--0-----0------------|--0--1--0--3--0--4--3--1--|--0--0-----0------------|


  PM    PM    PM             PM PM PM                  
  E  E  E  E  E  E  E  E     S  S  E  E  E  H          
--------------------------|---------------------------|
--------------------------|---------------------------|
--------------------------|---------------------------|
--------------------------|---------------------------|
--------------------------|-----------------8\--------|
-----3-----5-----6--5--3--|-----------------7\--------|
--0--1--0--3--0--4--3--1--|--0--0--0-----0------------|


  PM    PM    PM             PM PM PM                   
  E  E  E  E  E  E  E  E     S  S  E  E  E   H          
--------------------------|----------------------------|
--------------------------|----------------------------|
--------------------------|----------------------------|
--------------------------|----------------------------|
--------------------------|-----------------10\--------|
-----3-----5-----6--5--3--|------------------7\--------|
--0--1--0--3--0--4--3--1--|--0--0--0-----0-------------|


  PM    PM    PM             PM PM PM                  
  E  E  E  E  E  E  E  E     S  S  E  E  E  H          
--------------------------|---------------------------|
--------------------------|---------------------------|
--------------------------|---------------------------|
--------------------------|---------------------------|
--------------------------|-----------------9\--------|
-----3-----5-----6--5--3--|-----------------7\--------|
--0--1--0--3--0--4--3--1--|--0--0--0-----0------------|


  PM    PM    PM                                     
  E  E  E  E  E  E  E  E     Q    E    H         E   
--------------------------|-------------------------|
--------------------------|-------------------------|
--------------------------|-------------------------|
--------------------------|--9----7S--10~--------L--|
--------------------------|-------------------------|
-----3-----5-----6--5--3--|--7----5S---8~--------L--|
--0--1--0--3--0--4--3--1--|-------------------------|


  PM PM PM PM PM PM PM PM PM PM    PM PM PM PM                               
  S  S  S  S  S  S  S  S  S  S  E  S  S  S  S     Q    E    Q    E    E  E   
-----------------------------------------------|----------------------------|
-----------------------------------------------|----------------------------|
-----------------------------------------------|----------------------------|
-----------------------------------------------|--9----7S--10----7S--10-----|
-----------------------------------------------|----------------------------|
--------------------------------2--------------|--7----5S---8----5S---8-----|
--0--0--0--0--0--0--0--0--0--0--0--0--0--0--0--|-------------------------0--|


       PM PM                                          
  Q    S  S  Q    E  E  E     Q    E    H         E   
---------------------------|-------------------------|
---------------------------|-------------------------|
---------------------------|-------------------------|
------------------------7--|--9----7S--10~--------L--|
-------------3----4--------|-------------------------|
--2----------1----2--2--5--|--7----5S---8~--------L--|
--L----0--0----------0-----|-------------------------|


  PM PM PM PM PM PM PM PM PM PM    PM PM PM PM                               
  S  S  S  S  S  S  S  S  S  S  E  S  S  S  S     Q    E    Q    E    E  E   
-----------------------------------------------|----------------------------|
-----------------------------------------------|----------------------------|
-----------------------------------------------|----------------------------|
-----------------------------------------------|--9----7S--10----7S--10-----|
-----------------------------------------------|----------------------------|
--------------------------------2--------------|--7----5S---8----5S---8-----|
--0--0--0--0--0--0--0--0--0--0--0--0--0--0--0--|-------------------------0--|


       PM PM PM PM PM PM PM PM PM PM PM PM    PM PM    PM            
  Q    S  S  S  S  S  S  S  S  S  S  S  S     E  E  E  E  H          
-------------------------------------------|------------------------|
-------------------------------------------|------------------------|
-------------------------------------------|------------------------|
-------------------------------------------|------------------------|
-------------------------------------------|--------------9\--------|
--2----------------------------------------|--------------7\--------|
--L----7--6--5--0--6--5--4--0--5--4--3--0--|--0--0-----0------------|


  PM    PM    PM             PM PM PM                  
  E  E  E  E  E  E  E  E     S  S  E  E  E  H          
--------------------------|---------------------------|
--------------------------|---------------------------|
--------------------------|---------------------------|
--------------------------|---------------------------|
--------------------------|-----------------8\--------|
-----3-----5-----6--5--3--|-----------------7\--------|
--0--1--0--3--0--4--3--1--|--0--0--0-----0------------|


  PM    PM    PM             PM PM PM                   
  E  E  E  E  E  E  E  E     S  S  E  E  E   H          
--------------------------|----------------------------|
--------------------------|----------------------------|
--------------------------|----------------------------|
--------------------------|----------------------------|
--------------------------|-----------------10\--------|
-----3-----5-----6--5--3--|------------------7\--------|
--0--1--0--3--0--4--3--1--|--0--0--0-----0-------------|


  PM    PM    PM             PM PM PM                  
  E  E  E  E  E  E  E  E     S  S  E  E  E  H          
--------------------------|---------------------------|
--------------------------|---------------------------|
--------------------------|---------------------------|
--------------------------|---------------------------|
--------------------------|-----------------9\--------|
-----3-----5-----6--5--3--|-----------------7\--------|
--0--1--0--3--0--4--3--1--|--0--0--0-----0------------|


  PM    PM    PM             PM PM    PM              PM    PM    PM           
  E  E  E  E  E  E  E  E     E  E  E  E  H            E  E  E  E  E  E  E  E   
--------------------------|------------------------|--------------------------|
--------------------------|------------------------|--------------------------|
--------------------------|------------------------|--------------------------|
--------------------------|------------------------|--------------------------|
--------------------------|--------------9\--------|--------------------------|
-----3-----5-----6--5--3--|--------------7\--------|-----3-----5-----6--5--3--|
--0--1--0--3--0--4--3--1--|--0--0-----0------------|--0--1--0--3--0--4--3--1--|


  PM PM PM                    PM    PM    PM           
  S  S  E  E  E  H            E  E  E  E  E  E  E  E   
---------------------------|--------------------------|
---------------------------|--------------------------|
---------------------------|--------------------------|
---------------------------|--------------------------|
-----------------8\--------|--------------------------|
-----------------7\--------|-----3-----5-----6--5--3--|
--0--0--0-----0------------|--0--1--0--3--0--4--3--1--|


  PM PM PM                     PM    PM    PM           
  S  S  E  E  E   H            E  E  E  E  E  E  E  E   
----------------------------|--------------------------|
----------------------------|--------------------------|
----------------------------|--------------------------|
----------------------------|--------------------------|
-----------------10\--------|--------------------------|
------------------7\--------|-----3-----5-----6--5--3--|
--0--0--0-----0-------------|--0--1--0--3--0--4--3--1--|


  PM PM PM                    PM    PM    PM                                   
  S  S  E  E  E  H            E  E  E  E  E  E  E  E      Q.     Q.      Q     
---------------------------|--------------------------|-----------------------|
---------------------------|--------------------------|-----------------------|
---------------------------|--------------------------|--/6------4------/6----|
---------------------------|--------------------------|-----------------------|
-----------------9\--------|--------------------------|--/4------2------/4----|
-----------------7\--------|-----3-----5-----6--5--3--|-----------------------|
--0--0--0-----0------------|--0--1--0--3--0--4--3--1--|-----------------------|


  E  Q.      Q    Q       W                   Q.     Q.     Q     
-----------------------|-------------------|---------------------|
-----------------------|-------------------|---------------------|
--L--4------/6----4----|-------------------|---------------------|
-----------------------|-------------------|---------------------|
--L--2------/4----2----|--3----------------|---------------------|
-----------------------|--3----------------|--5------3------6----|
-----------------------|--1----------------|--3------1------4----|


   Q.     Q.      Q       E  Q.      Q    Q       W                 
-----------------------|-----------------------|-------------------|
-----------------------|-----------------------|-------------------|
--/6------4------/6----|--L--7------/6----7----|-------------------|
-----------------------|-----------------------|--6----------------|
--/4------2------/4----|--L--5------/4----5----|--6----------------|
-----------------------|-----------------------|--4----------------|
-----------------------|-----------------------|-------------------|


     PM PM    PM PM    PM                                                  
  E  E  E  E  E  E  E  E      Q.     Q.      Q       E  Q.      Q    Q     
--------------------------|-----------------------|-----------------------|
--------------------------|-----------------------|-----------------------|
--------------------------|--/6------4------/6----|--L--4------/6----4----|
--------------------------|-----------------------|-----------------------|
--------------------------|--/4------2------/4----|--L--2------/4----2----|
--5--------3--------6-----|-----------------------|-----------------------|
--3--0--0--1--0--0--4--0--|-----------------------|-----------------------|


  W                   Q.     Q.     Q        Q.     Q.      Q     
-------------------|---------------------|-----------------------|
-------------------|---------------------|-----------------------|
-------------------|---------------------|--/6------4------/6----|
-------------------|---------------------|-----------------------|
--3----------------|---------------------|--/4------2------/4----|
--3----------------|--5------3------6----|-----------------------|
--1----------------|--3------1------4----|-----------------------|


                                                 PM PM    PM PM    PM  
  E  Q.      Q    Q       W                   E  E  E  E  E  E  E  E   
-----------------------|-------------------|--------------------------|
-----------------------|-------------------|--------------------------|
--L--7------/6----7----|-------------------|--------------------------|
-----------------------|--6----------------|--------------------------|
--L--5------/4----5----|--6----------------|--------------------------|
-----------------------|--4----------------|--5--------3--------6-----|
-----------------------|-------------------|--3--0--0--1--0--0--4--0--|


     PM PM    PM PM    PM       PM PM PM PM PM PM PM        
  E  E  E  E  E  E  E  E     E  E  E  E  S  S  S  S  E  E   
--------------------------|--------------------------------|
--------------------------|--------------------------------|
--------------------------|--------------------------------|
--------------------------|--------------------------------|
--------------------------|--------------------------------|
--5--------3--------6-----|--5--------3--5--5--5--5--5-----|
--3--0--0--1--0--0--4--0--|--3--0--0--1--3--3--3--3--3-----|


    T        T    T        T    T        
    S S S S  S S  S S S S  S S  S S S S  
|---------------------------------------|
|---------------------------------------|
|---------------------------------------|
|---------------------------------------|
|---------------------------------------|
|---------------------------------------|
|--12-0-5-9-12-0-12-0-5-9-12-0-12-0-6-9-|


   T        T    T        T                T        T             T             
   S S S S  S S  S S S S  S S  S S S S     S S S S  S S  S S S S  S S  S S S S  
---------------------------------------|---------------------------------------|
---------------------------------------|---------------------------------------|
---------------------------------------|---------------------------------------|
---------------------------------------|---------------------------------------|
---------------------------------------|---------------------------------------|
---------------------------------------|---------------------------------------|
--13-0-6-9-13-0-13-0-6-9-13-0-13-0-3-7-|--10-0-3-7-10-0-10-0-3-7-10-0-10-0-4-7-|


   T        T             T                          PM   PM   PM    
                                                     |----3----|     
   S S S S  S S  S S S S  S S  S S S S      H        Q    Q    Q     
----------------------------------------||--------------------------|
----------------------------------------||--------------------------|
----------------------------------------||--------------------------|
----------------------------------------||--------------------------|
----------------------------------------||--------------------------|
----------------------------------------||--6--------6----5----3----|
--11-0-4-7-11-0-11-0-4-7-11-0-11-0-5-9--||--4--------4----3----1----|


  PM                                                                 
  Q    H.               Q.     Q.      Q       E  Q.      Q    Q     
--------------------|-----------------------|-----------------------|
--------------------|-----------------------|-----------------------|
--------------------|--/6------4------/6----|--L--4------/6----4----|
--------------------|-----------------------|-----------------------|
--------------------|--/4------2------/4----|--L--2------/4----2----|
--6-----------------|-----------------------|-----------------------|
--4-----------------|-----------------------|-----------------------|


  W                   Q.     Q.     Q        Q.     Q.      Q     
-------------------|---------------------|-----------------------|
-------------------|---------------------|-----------------------|
-------------------|---------------------|--/6------4------/6----|
-------------------|---------------------|-----------------------|
--3----------------|---------------------|--/4------2------/4----|
--3----------------|--5------3------6----|-----------------------|
--1----------------|--3------1------4----|-----------------------|


                                                 PM PM    PM PM    PM  
  E  Q.      Q    Q       W                   E  E  E  E  E  E  E  E   
-----------------------|-------------------|--------------------------|
-----------------------|-------------------|--------------------------|
--L--7------/6----7----|-------------------|--------------------------|
-----------------------|--6----------------|--------------------------|
--L--5------/4----5----|--6----------------|--------------------------|
-----------------------|--4----------------|--5--------3--------6-----|
-----------------------|-------------------|--3--0--0--1--0--0--4--0--|


   Q.     Q.      Q       E  Q.      Q    Q       W                 
-----------------------|-----------------------|-------------------|
-----------------------|-----------------------|-------------------|
--/6------4------/6----|--L--4------/6----4----|-------------------|
-----------------------|-----------------------|-------------------|
--/4------2------/4----|--L--2------/4----2----|--3----------------|
-----------------------|-----------------------|--3----------------|
-----------------------|-----------------------|--1----------------|


  Q.     Q.     Q        Q.     Q.      Q       E  Q.      Q    Q     
---------------------|-----------------------|-----------------------|
---------------------|-----------------------|-----------------------|
---------------------|--/6------4------/6----|--L--7------/6----7----|
---------------------|-----------------------|-----------------------|
---------------------|--/4------2------/4----|--L--5------/4----5----|
--5------3------6----|-----------------------|-----------------------|
--3------1------4----|-----------------------|-----------------------|


                         PM PM    PM PM    PM       PM PM    PM PM    PM  
  W                   E  E  E  E  E  E  E  E     E  E  E  E  E  E  E  E   
-------------------|--------------------------|--------------------------|
-------------------|--------------------------|--------------------------|
-------------------|--------------------------|--------------------------|
--6----------------|--------------------------|--------------------------|
--6----------------|--------------------------|--------------------------|
--4----------------|--5--------3--------6-----|--5--------3--------6-----|
-------------------|--3--0--0--1--0--0--4--0--|--3--0--0--1--0--0--4--0--|


     PM PM PM PM PM PM PM PM PM PM PM                       
  E  E  E  E  S  S  S  S  S  S  S  S      W                 
--------------------------------------|--------------------|
--------------------------------------|--------------------|
--------------------------------------|--------------------|
--------------------------------------|--11----------------|
--------------------------------------|---9----------------|
--5--------3--5--5--5--5--5--5--5--5--|---9----------------|
--3--0--0--1--3--3--3--3--3--3--3--3--|--------------------|


           |-----3-----|                                                
  H        Q     Q     Q        W                   H         H         
----------------------------|--------------------|---------------------|
----------------------------|--------------------|---------------------|
----------------------------|--------------------|---------------------|
--L-------------------------|--10----------------|--L--------10--------|
--L-------------------------|--10----------------|--L--------10--------|
--L--------9----11----12----|---8----------------|--L---------8--------|
-----------7-----9----10----|--------------------|---------------------|


   W                   H         H            W                 
--------------------|---------------------|--------------------|
--------------------|---------------------|--------------------|
--------------------|---------------------|--------------------|
--11----------------|--L--------11--------|--10----------------|
--11----------------|--L--------11--------|--10----------------|
---9----------------|--L---------9--------|---8----------------|
--------------------|---------------------|--------------------|


  |----3----|    |----3----|                          
  Q    Q    Q    Q    Q    Q        W                 
--------------------------------|--------------------|
--------------------------------|--------------------|
--------------------------------|--------------------|
--------------------------------|--11----------------|
--9-----------------------------|---9----------------|
--7----9----8----9----5----2----|---9----------------|
-------7----6----7----3----0----|--------------------|


           |-----3-----|                                                
  H        Q     Q     Q        W                   H         H         
----------------------------|--------------------|---------------------|
----------------------------|--------------------|---------------------|
----------------------------|--------------------|---------------------|
--L-------------------------|--10----------------|--L--------10--------|
--L-------------------------|--10----------------|--L--------10--------|
--L--------9----11----12----|---8----------------|--L---------8--------|
-----------7-----9----10----|--------------------|---------------------|


   W                   H         H            W                 
--------------------|---------------------|--------------------|
--------------------|---------------------|--------------------|
--------------------|---------------------|--------------------|
--11----------------|--L--------11--------|--10----------------|
--11----------------|--L--------11--------|--10----------------|
---9----------------|--L---------9--------|---8----------------|
--------------------|---------------------|--------------------|


  |----3----|    |----3----|                          
  Q    Q    Q    Q    Q    Q        W                 
--------------------------------|--------------------|
--------------------------------|--------------------|
--------------------------------|--------------------|
--------------------------------|--11----------------|
--9-----------------------------|---9----------------|
--7----9----8----9----5----2----|---9----------------|
-------7----6----7----3----0----|--------------------|


           PM    PM    PM                                               
           |-----3-----|                                                
  H        Q     Q     Q        W                   H         H         
----------------------------|--------------------|---------------------|
----------------------------|--------------------|---------------------|
----------------------------|--------------------|---------------------|
--L-------------------------|--10----------------|--L--------10--------|
--L-------------------------|--10----------------|--L--------10--------|
--L--------9----11----12----|---8----------------|--L---------8--------|
-----------7-----9----10----|--------------------|---------------------|


   W                   H         H            W                 
--------------------|---------------------|--------------------|
--------------------|---------------------|--------------------|
--------------------|---------------------|--------------------|
--11----------------|--L--------11--------|--10----------------|
--11----------------|--L--------11--------|--10----------------|
---9----------------|--L---------9--------|---8----------------|
--------------------|---------------------|--------------------|


  |----3----|    |----3----|       -----   -----   -----   -----   ----- 
  Q    Q    Q    Q    Q    Q                                             
--------------------------------|-------|-------|-------|-------|-------|
--------------------------------|-------|-------|-------|-------|-------|
--------------------------------|-------|-------|-------|-------|-------|
--------------------------------|-------|-------|-------|-------|-------|
--9-----------------------------|-------|-------|-------|-------|-------|
--7----9----8----9----5----2----|-------|-------|-------|-------|-------|
-------7----6----7----3----0----|-------|-------|-------|-------|-------|


  -----   -----   -----   -----   -----   -----   -----   -----   -----   ----- 
-------|-------|-------|-------|-------|-------|-------|-------|-------|-------|
-------|-------|-------|-------|-------|-------|-------|-------|-------|-------|
-------|-------|-------|-------|-------|-------|-------|-------|-------|-------|
-------|-------|-------|-------|-------|-------|-------|-------|-------|-------|
-------|-------|-------|-------|-------|-------|-------|-------|-------|-------|
-------|-------|-------|-------|-------|-------|-------|-------|-------|-------|
-------|-------|-------|-------|-------|-------|-------|-------|-------|-------|


  -----   -----   -----   -----   -----   -----   -----   -----   -----   ----- 
-------|-------|-------|-------|-------|-------|-------|-------|-------|-------|
-------|-------|-------|-------|-------|-------|-------|-------|-------|-------|
-------|-------|-------|-------|-------|-------|-------|-------|-------|-------|
-------|-------|-------|-------|-------|-------|-------|-------|-------|-------|
-------|-------|-------|-------|-------|-------|-------|-------|-------|-------|
-------|-------|-------|-------|-------|-------|-------|-------|-------|-------|
-------|-------|-------|-------|-------|-------|-------|-------|-------|-------|


            PM PM PM PM PM PM PM PM                     PM PM PM PM PM PM PM PM 
                                      -----                                     
  H         S  S  S  S  S  S  S  S            H         S  S  S  S  S  S  S  S  
-----------------------------------|-------|-----------------------------------|
-----------------------------------|-------|-----------------------------------|
-----------------------------------|-------|-----------------------------------|
-----------------------------------|-------|-----------------------------------|
-----------------------------------|-------|-----------------------------------|
-----------11-11-11-11-11-11-11-11-|-------|-----------11-11-11-11-11-11-11-11-|
-----------11-11-11-11-11-11-11-11-|-------|-----------11-11-11-11-11-11-11-11-|


                   PM PM PM PM PM PM PM PM          
  -----                                       ----- 
          H        S  S  S  S  S  S  S  S           
-------|-----------------------------------|-------|
-------|-----------------------------------|-------|
-------|-----------------------------------|-------|
-------|-----------------------------------|-------|
-------|-----------------------------------|-------|
-------|-----------8--8--8--8--8--8--8--8--|-------|
-------|-----------8--8--8--8--8--8--8--8--|-------|


           PM PM PM PM PM PM PM PM      T        T    T        T    T        
  H        S  S  S  S  S  S  S  S       S S S S  S S  S S S S  S S  S S S S  
-----------------------------------||---------------------------------------|
-----------------------------------||---------------------------------------|
-----------------------------------||---------------------------------------|
-----------------------------------||---------------------------------------|
-----------------------------------||---------------------------------------|
-----------8--8--8--8--8--8--8--8--||---------------------------------------|
-----------8--8--8--8--8--8--8--8--||--12-0-5-9-12-0-12-0-5-9-12-0-12-0-6-9-|


   T        T    T        T                T        T             T             
   S S S S  S S  S S S S  S S  S S S S     S S S S  S S  S S S S  S S  S S S S  
---------------------------------------|---------------------------------------|
---------------------------------------|---------------------------------------|
---------------------------------------|---------------------------------------|
---------------------------------------|---------------------------------------|
---------------------------------------|---------------------------------------|
---------------------------------------|---------------------------------------|
--13-0-6-9-13-0-13-0-6-9-13-0-13-0-3-7-|--10-0-3-7-10-0-10-0-3-7-10-0-10-0-4-7-|


   T        T             T                          PM   PM   PM    
                                                     |----3----|     
   S S S S  S S  S S S S  S S  S S S S      H        Q    Q    Q     
----------------------------------------||--------------------------|
----------------------------------------||--------------------------|
----------------------------------------||--------------------------|
----------------------------------------||--------------------------|
----------------------------------------||--------------------------|
----------------------------------------||--6--------6----5----3----|
--11-0-4-7-11-0-11-0-4-7-11-0-11-0-5-9--||--4--------4----3----1----|


  PM PM    PM              PM    PM    PM             PM PM PM                  
  E  E  E  E  H            E  E  E  E  E  E  E  E     S  S  E  E  E  H          
------------------------|--------------------------|---------------------------|
------------------------|--------------------------|---------------------------|
------------------------|--------------------------|---------------------------|
------------------------|--------------------------|---------------------------|
--------------9\--------|--------------------------|-----------------8\--------|
--------------7\--------|-----3-----5-----6--5--3--|-----------------7\--------|
--0--0-----0------------|--0--1--0--3--0--4--3--1--|--0--0--0-----0------------|


  PM    PM    PM             PM PM PM                   
  E  E  E  E  E  E  E  E     S  S  E  E  E   H          
--------------------------|----------------------------|
--------------------------|----------------------------|
--------------------------|----------------------------|
--------------------------|----------------------------|
--------------------------|-----------------10\--------|
-----3-----5-----6--5--3--|------------------7\--------|
--0--1--0--3--0--4--3--1--|--0--0--0-----0-------------|


  PM    PM    PM             PM PM PM                  
  E  E  E  E  E  E  E  E     S  S  E  E  E  H          
--------------------------|---------------------------|
--------------------------|---------------------------|
--------------------------|---------------------------|
--------------------------|---------------------------|
--------------------------|-----------------9\--------|
-----3-----5-----6--5--3--|-----------------7\--------|
--0--1--0--3--0--4--3--1--|--0--0--0-----0------------|


  PM    PM    PM                                                           
  E  E  E  E  E  E  E  E      Q.     Q.      Q       E  Q.      Q    Q     
--------------------------|-----------------------|-----------------------|
--------------------------|-----------------------|-----------------------|
--------------------------|--/6------4------/6----|--L--4------/6----4----|
--------------------------|-----------------------|-----------------------|
--------------------------|--/4------2------/4----|--L--2------/4----2----|
-----3-----5-----6--5--3--|-----------------------|-----------------------|
--0--1--0--3--0--4--3--1--|-----------------------|-----------------------|


  W                   Q.     Q.     Q        Q.     Q.      Q     
-------------------|---------------------|-----------------------|
-------------------|---------------------|-----------------------|
-------------------|---------------------|--/6------4------/6----|
-------------------|---------------------|-----------------------|
--3----------------|---------------------|--/4------2------/4----|
--3----------------|--5------3------6----|-----------------------|
--1----------------|--3------1------4----|-----------------------|


                                                 PM PM    PM PM    PM  
  E  Q.      Q    Q       W                   E  E  E  E  E  E  E  E   
-----------------------|-------------------|--------------------------|
-----------------------|-------------------|--------------------------|
--L--7------/6----7----|-------------------|--------------------------|
-----------------------|--6----------------|--------------------------|
--L--5------/4----5----|--6----------------|--------------------------|
-----------------------|--4----------------|--5--------3--------6-----|
-----------------------|-------------------|--3--0--0--1--0--0--4--0--|


   Q.     Q.      Q       E  Q.      Q    Q       W                 
-----------------------|-----------------------|-------------------|
-----------------------|-----------------------|-------------------|
--/6------4------/6----|--L--4------/6----4----|-------------------|
-----------------------|-----------------------|-------------------|
--/4------2------/4----|--L--2------/4----2----|--3----------------|
-----------------------|-----------------------|--3----------------|
-----------------------|-----------------------|--1----------------|


  Q.     Q.     Q        Q.     Q.      Q       E  Q.      Q    Q     
---------------------|-----------------------|-----------------------|
---------------------|-----------------------|-----------------------|
---------------------|--/6------4------/6----|--L--7------/6----7----|
---------------------|-----------------------|-----------------------|
---------------------|--/4------2------/4----|--L--5------/4----5----|
--5------3------6----|-----------------------|-----------------------|
--3------1------4----|-----------------------|-----------------------|


                         PM PM    PM PM    PM       PM PM    PM PM    PM  
  W                   E  E  E  E  E  E  E  E     E  E  E  E  E  E  E  E   
-------------------|--------------------------|--------------------------|
-------------------|--------------------------|--------------------------|
-------------------|--------------------------|--------------------------|
--6----------------|--------------------------|--------------------------|
--6----------------|--------------------------|--------------------------|
--4----------------|--5--------3--------6-----|--5--------3--------6-----|
-------------------|--3--0--0--1--0--0--4--0--|--3--0--0--1--0--0--4--0--|


     PM PM PM PM PM PM PM         
  E  E  E  E  S  S  S  S  E  E    
--------------------------------||
--------------------------------||
--------------------------------||
--------------------------------||
--------------------------------||
--5--------3--5--5--5--5--5-----||
--3--0--0--1--3--3--3--3--3-----||

Jeff Loomis Sweep Lead:

      S S S  S  S  S  S  S  S  S  E   S  S  S  S  S  S  S  S  
D#||---------------------------------------------------------|
A#||---------------------------------------------------------|
F#||---------------------------------------12-15--L-12-------|
C#||--------------13-13-----------------13-------------13----|
G#||--6--------10-------10----10-13--13-------------------13-|
D#||----6-6-11-------------11--------------------------------|
A#||---------------------------------------------------------|
                    
   S  S  S  S  S  S  S  S  S  S  S  S  S  S  S  S S S S S    W                 
--------------15-18-18-15----------------15-18-23---------|
-----------16-------------16----------16------------------|
--------15-------------------15----15---------------------|
-----13-------------------------13------------------------|
--18------------------------------------------------------|
----------------------------------------------------------|
----------------------------------------------------------|

Solos:

1:
D#||-------------------------------|-----------------------------|
A#||-------------------------------|-----------------------12----|
F#||--/13~------14-13-11-13--------|--L--------13----14----------|
C#||-------------------------------|-----------------------------|
G#||-------------------------------|-----------------------------|
D#||-------------------------------|-----------------------------|
A#||-------------------------------|-----------------------------|


                                                                  \2         
                       |--3--|      |--3-|     |-3-|     |--3--|             
   E   Q     S  S  E   S  S  S  E   S  S S     S S S  E  E  E  E  Q.     E   
-------------------------------------------|--------------------------------|
--13~--L----12-10-12--10-12-10s-8--12-10-8-|--10-8-7~-L--7--8--7--5------L--|
-------------------------------------------|--------------------------------|
-------------------------------------------|--------------------------------|
-------------------------------------------|--------------------------------|
-------------------------------------------|--------------------------------|
-------------------------------------------|--------------------------------|


  \1                          PM PM PM PM PM PM PM PM PM PM PM PM PM  
                  |--3--|     |--3--|              |--3--|  |--3--|   
  H        S S E  E  E  E     E  E  E  S  S  S  S  E  E  E  E  E  E   
--4---------------------7--|-----------------------------------------|
-----------7-6-5--4--5-----|--5--4-----4--5--4-----4-----------------|
---------------------------|--------6-----------6-----6--4-----4--6--|
---------------------------|--------------------------------6--------|
---------------------------|-----------------------------------------|
---------------------------|-----------------------------------------|
---------------------------|-----------------------------------------|


                                   \2       \2                                 
  Q     S S S S S S S S S S S S    H        H                                  
--------------------------------|--------------------|-------------------|----|
--5~----------------------------|--------------------|-------------------|----|
--------7-5-4-----4-------------|--------------------|-------------------|----|
--------------7-5---7-5-4-5-4---|--------------------|-------------------|----|
------------------------------5-|--7-----------------|-------------------|----|
--------------------------------|--------------------|-------------------|----|
--------------------------------|-----------5--------|-------------------|----|

|-----------------------------|
|--17b--L-----Lpbr--19--------|
|-----------------------------|
|-----------------------------|
|-----------------------------|
|-----------------------------|
|-----------------------------|


2:
               |-----3-----|                             
  Q     Q      Q     Q     Q       H          H          
--------------14----16----17----|--8~--------17~--------|
--------------------------------|-----------------------|
--------------------------------|-----------------------|
--------------------------------|-----------------------|
--------------------------------|-----------------------|
--------------------------------|-----------------------|
--------------------------------|-----------------------|


   Q.      S  S  Q.       E    
---L------16-14-16~-------L\--|
------------------------------|
------------------------------|
------------------------------|
------------------------------|
------------------------------|
------------------------------|


   |----3---|   |----3---|   |----3---|   |----3---|   
   E   E    E   E   E    E   E   E    E   E   E    E   
--16-----------14-----------12-----------16-----------|
------14S--12------12S--10------10S--12------14S--12--|
------------------------------------------------------|
------------------------------------------------------|
------------------------------------------------------|
------------------------------------------------------|
------------------------------------------------------|


   |----3---|   |---3---|   |---3--|  |---3--|   
   E   E    E   E   E   E   E  E   E  E  E   E   
--14-----------12----------11---------9---------|
------12S--10------10S--7------7S--5-----5S--4--|
------------------------------------------------|
------------------------------------------------|
------------------------------------------------|
------------------------------------------------|
------------------------------------------------|


   |--3--|  |--3--|   |---3---|   |---3---|   
   E  E  E  E  E  E   E   E   E   E   E   E   
--12--8-----------8--14--10--------------10--|
---------8-----8-------------10------10------|
------------9--------------------11----------|
---------------------------------------------|
---------------------------------------------|
---------------------------------------------|
---------------------------------------------|


                                                W   W                        
   |---3---|   |---3---|   |-----3-----|                                     
   E   E   E   E   E   E   Q     Q     Q        E   E  E   Q      E  E   E   
--15--12------17--14------18----19----20----|--21------------------------L--|
----------13----------15--------------------|-------------------------------|
--------------------------------------------|-------------------------------|
--------------------------------------------|----------9--11~--------9--11--|
--------------------------------------------|------12------------12---------|
--------------------------------------------|-------------------------------|
--------------------------------------------|-------------------------------|


      PM  PM  PM  PM PM                                              
  E   E   E   E   E  E   E   E      Q       S  S  Q      E   Q       
--------------------------------|-----------------------------------|
--------------------------------|-----------------------------------|
--------------------------------|---------------------------12br----|
--9-----------------------------|----------10-12-10~----12----------|
-----12--11--12--11--9----------|--10br-----------------------------|
------------------------11--12--|-----------------------------------|
--------------------------------|-----------------------------------|


   |---3---|   |---3---|   |---3---|   |---3---|             
   E   E   E   E   E   E   E   E   E   E   E   E             
--------------------------------------------------|---------|
--------------------------------------------------|---------|
--------------11--12--14--------------11--13--14--|---------|
--10--12--14--------------10--12--14--------------|---------|
--------------------------------------------------|---------|
--------------------------------------------------|---------|
--------------------------------------------------|---------|


                                         W         
                       |-----3-----|               
                       Q     Q     Q     H         
-------------------|------------------------------|
-------------------|------------------------------|
-------------------|--------------12----14--------|
-------------------|--------14--------------------|
-------------------|--15--------------------------|
-------------------|------------------------------|
-------------------|------------------------------|


   |---3---|   |---3---|   |---3---|   |---3---|                         
   E   E   E   E   E   E   E   E   E   E   E   E      W                  
--------------14--15--17--15--14------14--15--17--|--18~----------------|
--13--15--17----------------------17--------------|---------------------|
--------------------------------------------------|---------------------|
--------------------------------------------------|---------------------|
--------------------------------------------------|---------------------|
--------------------------------------------------|---------------------|
--------------------------------------------------|---------------------|

3:

D#||---------------------------|--------------------------------|
A#||---------------------------|--------------------------------|
F#||-----------9------------9--|--------------------------------|
C#||-----7--9-------11--12-----|--12--11--9--11--9--------------|
G#||---------------------------|--------------------12--11--12--|
D#||---------------------------|--------------------------------|
A#||---------------------------|--------------------------------|


   Q      S  S Q     E   Q       
--------------------------------|
------------------------12br----|
----------9-10-9----11----------|
--10br--------------------------|
--------------------------------|
--------------------------------|
--------------------------------|


   |---3---|   |---3---|   |---3---|   |---3---|   
   E   E   E   E   E   E   E   E   E   E   E   E   
--------------------------------------14--16--17--|
--------------------------13--15--17--------------|
--------------11--12--14--------------------------|
--10--12--14--------------------------------------|
--------------------------------------------------|
--------------------------------------------------|
--------------------------------------------------|


   Q.       S  S  S  S  S  S  S S  S S  
--16~------11-12-14-16-14-12-11-9-11-9-|
---------------------------------------|
---------------------------------------|
---------------------------------------|
---------------------------------------|
---------------------------------------|
---------------------------------------|


          |--3-| |-3-| |-3-|                   |------3-----|                
  S S  S  S S  S S S S S S S S S S S S S S     Q      Q     Q     H          
--7-5------------------------4-5-4---------|--------------------------------|
------12-10-9-10-9-5-9-------------9-5-----|---------------12----13~--------|
-----------------------6-8-9-----------9-5-|---------14---------------------|
-------------------------------------------|--14~---------------------------|
-------------------------------------------|--------------------------------|
-------------------------------------------|--------------------------------|
-------------------------------------------|--------------------------------|


   |---3---|   |---3---|   |---3---|   |---3---|                          
   E   E   E   E   E   E   E   E   E   E   E   E      W                   
--------------17--19--20--19--17------17--18--20--|--21~----------------||
--17--19--20----------------------20--------------|---------------------||
--------------------------------------------------|---------------------||
--------------------------------------------------|---------------------||
--------------------------------------------------|---------------------||
--------------------------------------------------|---------------------||
--------------------------------------------------|---------------------||




comments
We did not receive enough feedback on this tab! Please rate:
print report bad tab
1 2 3 4 5
I want to post or [tab]
guest
You may want to rate the tab now too:
select rating
Please do not post tabs as comments. Select "correction" instead!