Oops, an error
Loading. Please wait.

Ambivalent Tab

2,504 views 12 this week
no commentswrite comment
1 2 3 4 5
excellent!
x 2
Autoscroll
+/-
esc
set tempo
stop
Difficulty
advanced
WARNING: You are trying to view
                                    content from Ultimate-Guitar.com
                                    in an unauthorized application,
                                    which is prohibited.

                                    Please use an official Ultimate
                                    Guitar Tabs application for iPhone,
                                    iPad or Android to access legitimate
                                    chords, guitar, bass, and drum tabs
                                    from Ultimate-Guitar.com database.

                                    Type "ultimate guitar tabs" in Apple
                                    App Store's or Android Market's
                                    search to find the application.
Band: Nevermore
Song: Ambivalent
Written By: Jeff loomis/Warrel Dane
From: Enemies of Reality
Tuned: 1/2 Step Down

Intro Riff                                                                          
e !------------------------!------------------------!------------------!
b |------------------------|------------------------|------------------|
G |o-----------------------|------------------------|------------------|
D |------------------------|------------------------|------------------|
A |o-----------------------|-------------3-2-0------|------------------|
E |------------2-1-0-------|-------------------3-2-1|-------------2-1-0|
B |0-1-2-3-2-1-------3-2-1-|-0-1-2-3-2-1------------|-0-1-2-3-2-1------|


                             Verse Riff                                        
e !-------------------------!!--------------------------------------!                             
b |-------------------------||--------------------------------------|
G |------------------------o||o-------------------------------------|
D |-------------------------||--------------------------------------|
A |------------------------o||o-------------------------------------|
E |-------------8-7-5-7~~---||--------------------------------------|
B |0-1-2-3-2-1--------------||--3-2-1-2------3-2-1-2-------3-2-1-2--|


                            Pre-Chorus Riff                                               
e !------------------------!!------------------------------------------!
b |------------------------||------------------------------------------|
G |-----------------------o||o-----------------------------------------|
D |------------------------||------------------------------------------|
A |-----------------------o||o-----------------------------------------|
E |------------2-1-0-------||--------------------3---------------------|
B |3-2-1-0-1-2-------3-2-1-||-3-2-0-2~~----2-0-2---3-0-2~~----3-2-0-3-2|


                                          Bridge 1                                
e !------!-------------------------------!!----------------------------!
b |------|-------------------------------||----------------------------|
G |------|------------------------------o||----------------------------|
D |------|-------------------------------||----------------------------|
A |------|------------------------------o||2---2---2--2--2--2---2--2--2|
E |------|-------2-1-0-------3-2-1-------||2---2---2--2--2--2---2--2--2|
B |0-2~~-|-3-2-0-------3-2-0-------3-2-0-||0---0---0--0--0--0---0--0--0|


          Chorus Riff                                                               
e !------!!----------------------------------------!-------------------!
b |------||----------------------------------------|-------------------|
G |------||----------------------------------------|-------------------|
D |------||----------------------------------------|-------------------|
A |2---2-||-2--------------------------------------|-------------------|
E |2---2-||-2------/7~-9~--7h9/11~~--7--7~~--9~~--7|-5~~--5--7--7hb-7hb|
B |0---0-||-0--------------------------------------|-------------------|


                   After Chorus                                                  
e !---------------!!--------------------------------------------------!
b |---------------||--------------------------------------------------|
G |---------------||o-------------------------------------------------|
D |---------------||--------------------------------------------------|
A |---------------||o-----------------9-9-9-9-------------------------|
E |7--5--7A.H.~~--||--------------------------8-8-8-8-----------------|
B |---------------||--0-0-0-0-7-7-7-7-----------------0-0-0-0-7-7-7-7-|


                                                                          
e !--------------------------------------------------------------------!
b |--------------------------------------------------------------------|
G |--------------------------------------------------------------------|
D |--------------------------------------------------------------------|
A |--------------------------------6-6-6-6-----------------------------|
E |----------------------------------------5-5-5-5---------------------|
B |6-6-6-6-0-0-0-0-5-5-5-5-0-0-0-0-----------------0-0-0-0-4-4-4-4-3-3-|


               
e !-------------!
b |-------------|
G |------------o|
D |-------------|
A |------------o|
E |-------------|
B |3-3-2-2-2-2--|



Bridge 2                                                                   
e !---------------------------------------------------------------!
b |---------------------------------------------------------------|
G |---------------------------------------------------------------|
D |---------------------------------------------------------------|
A |------4--------4--------4--------4--------4--------4--------5--|
E |------3--------3--------3--------3--------3--------3--------4--|
B |0--2-----0--2-----0--2-----0--2-----0--2-----0--2-----0--3-----|


                                                                        
e !--------!-----------------------------------------------------------!
b |--------|-----------------------------------------------------------|
G |--------|-----------------------------------------------------------|
D |--------|-----------------------------------------------------------|
A |------5-|-------4\3/4--------4--------4--------4--------4--------4--|
E |------4-|-------3\2/3--------3--------3--------3--------3--------3--|
B |0--3----|-0--2---------0--2-----0--2-----0--2-----0--2-----0--2-----|


                       Solo 1 Riff                                                 
e !-------------------!!-----------------------------------------------!
b |-------------------||-------0--0--0-------0--0--0-----0--0--0-------|
G |------------------o||o----------------------------------------------|
D |-------------------||-----------------------------------------------|
A |------5--------5--o||o-2-------------3-------------2-----------2--3-|
E |------4--------4---||--2-------------3-------------2-----------2--3-|
B |0--3-----0--3------||--0-------------1-------------0-----------0--1-|


               Solo 2 Riff                                             
e !-----------!!-------------------------------------------!
b |0-----0----||------------------------------------0------|
G |---------o-||o------------------------------2/4-----4--o|
D |-----------||-------------------------------------------|
A |---------o-||o-2----2--2---2---2--2----2---------------o|
E |---2-------||--2----2--2---2---2--2----2----------------|
B |---3-------||--0----0--0---0---0--0----0----------------|

  

                                                                        
Solo 1
e |--------------------------------------------------|-----------------|
b |12fb-------14--15--17--15h17p15p14-12h14h15p14p12-|-----------------|
G |--------------------------------------------------|-12--16--14--12--|
D |--------------------------------------------------|-----------------|
A |--------------------------------------------------|-----------------|
E |--------------------------------------------------|-----------------|
B !--------------------------------------------------!-----------------!

                                                                          

e |------------------------------------------|------10-----------------|
b |------------------------------------------|----------10-------------|
G |11--12--14--12h14p12p11\9-11p9\7-9p7--9p7-|9fb-----------9r--7p6----|
D |------------------------------------------|----------------------9p7|
A |------------------------------------------|-------------------------|
E |------------------------------------------|-------------------------|
B !------------------------------------------!-------------------------!

                                                                     
A.H.------------------!                      A.H.--!
e |----------------------|------------------------------------------|
b |----------------------|---------12--10fb--10--10r----------------|
G |7--6--6--7--6~~--6~~--|-9-11-12--------------------11--12--11br--|
D |----------------------|------------------------------------------|
A |----------------------|------------------------------------------|
E |----------------------|------------------------------------------|
B !----------------------!------------------------------------------!
 

                                                                           

e |-----------------------------------------------|--------------------|
b |12----------------12----------------12-14-12/14|15-17-15-17-19-17-15|
G |---14-12-11-12-14----14-12-11-12-14------------|--------------------|
D |-----------------------------------------------|--------------------|
A |-----------------------------------------------|--------------------|
E |-----------------------------------------------|--------------------|
B !-----------------------------------------------!--------------------!

                                                                         

e |------------------------------------|-------------------------------|
b |---17-15----------15----------------|-------------------------------|
G |18-------18-16-18----18-16-14-18qbr-|-16-14-12-11-12-14-12-11\9-11-9|
D |------------------------------------|-------------------------------|
A |------------------------------------|-------------------------------|
E |------------------------------------|-------------------------------|
B !------------------------------------!-------------------------------!

                        

e |--------------------|
b |--------------------|
G |7-9p7-9p7-9p7--9gb--|
D |--------------------|
A |--------------------|
E |--------------------|
B !--------------------!

                                                                         
Solo 2
e |-----------------------------12--------12--12---|----------15-17-19-|
b |15fb------15--15--15r--15fb------15fb------15~--|-15-17-19----------|
G |------------------------------------------------|-------------------|
D |------------------------------------------------|-------------------|
A |------------------------------------------------|-------------------|
E |------------------------------------------------|-------------------|
B !------------------------------------------------!-------------------!

                                                                       

e |17~--17~~--|-17--15--14--15-17-15h17p15p14\12-14-15-17-15-14-15-14-|
b |-----------|-------------------------------------------------------|
G |-----------|-------------------------------------------------------|
D |-----------|-------------------------------------------------------|
A |-----------|-------------------------------------------------------|
E |-----------|-------------------------------------------------------|
B !-----------!-------------------------------------------------------!

                                                                         

e |-------------------------------|------------------------------------|
b |17-16-13-16-13-12-13-12\-------|----13-15-16-15-13----13-15-16-15-13|
G |-------------------------/17~~-|-16----------------16---------------|
D |-------------------------------|------------------------------------|
A |-------------------------------|------------------------------------|
E |-------------------------------|------------------------------------|
B !-------------------------------!------------------------------------!

                                                                        

e |--------------------------------------------------------------------|
b |---13-15-16-15-13----13-15-16-15-13----13-15-16-15-13----13-15-16-15|
G |16----------------16----------------16----------------16------------|
D |--------------------------------------------------------------------|
A |--------------------------------------------------------------------|
E |--------------------------------------------------------------------|
B !--------------------------------------------------------------------!

                                                                         

e |--------------14/19-14----------|------------------------15-------15|
b |13---13-15-16----------16-15-13-|15-16-17-19-17-16-17-19----17-19---|
G |--16----------------------------|-----------------------------------!
D !--------------------------------!-----------------------------------!
A !--------------------------------!-----------------------------------!
E !--------------------------------!-----------------------------------!
B !--------------------------------!-----------------------------------!

 

                                                                       

e |17----15-17-19-17-15-15/20-(20)trem pick-|-20-19-17-15-17-19-17-15-|
b |---19------------------------------------|-------------------------|
G |-----------------------------------------|-------------------------|
D |-----------------------------------------|-------------------------|
A |-----------------------------------------|-------------------------|
E |-----------------------------------------|-------------------------|
B !-----------------------------------------!-------------------------!

                                                                         

e |---17-15-------15---------------------------------------------------|
b |19-------19-17----19-17-16----16-17-16------------------------------|
G |---------------------------17----------17-16-14-12-11h12p11-------11|
D |------------------------------------------------------------14-13---|
A |--------------------------------------------------------------------|
E |--------------------------------------------------------------------|
B !--------------------------------------------------------------------!

                           

e |-----------------------|
b |---------/19~~--(19)gb-|
G |12-11------------------|
D |------13---------------|
A |-----------------------|
E |-----------------------|
B !-----------------------!

                                                                    
Solo 3
e |12-----------(12)-----------|-14------------(14)----------------|
b |15fb---------(15)fb---------|-17fb----------(17)fb--------------|
G |----------------------------|-----------------------------------|
D |----------------------------|-----------------------------------|
A |----------------------------|-----------------------------------|
E |----------------------------|-----------------------------------|
B !----------------------------!-----------------------------------!

                                                                      

e |------------------------------------------------------------------|
b |---12-14-15-14-12----12-14-15-14-12----12-14-15-14-12----12-14-15-|
G |14----------------14----------------14----------------14----------|
D |------------------------------------------------------------------|
A |------------------------------------------------------------------|
E |------------------------------------------------------------------|
B !------------------------------------------------------------------!

                                                                         

e |--------------------------------------------------------------------|
b |14-12----12-14-15-14-15-17-15-14----14-15-17-15-14----14-15-17-15-14|
G |------14-------------------------16----------------16---------------|
D |--------------------------------------------------------------------|
A |--------------------------------------------------------------------|
E |--------------------------------------------------------------------|
B !--------------------------------------------------------------------!

                                                                         

e |--------------------------------------------------------------------|
b |---14-15-17-15-14----14-15-17-15-14----14-15-17-15-17-19-17-15----15|
G |16----------------16----------------16-------------------------18---|
D |--------------------------------------------------------------------|
A |--------------------------------------------------------------------|
E |--------------------------------------------------------------------|
B !--------------------------------------------------------------------!

                                                                         

e |------15-------15-17----15-17-19-20-19-17----19-17-------17---------|
b |17-19----17-19-------19-------------------20-------20-19----20-19-17|
G |--------------------------------------------------------------------|
D |--------------------------------------------------------------------|
A |--------------------------------------------------------------------|
E |--------------------------------------------------------------------|
B !--------------------------------------------------------------------!

                                                                        

e |---------------------------|----------------------------------------|
b |19-17----17----------------|-------------17-------17-19----17-19-20-|
G |------19----19-18-16-18-16-|----16-18-19----18-19-------19----------|
D |---------------------------|-19-------------------------------------|
A |---------------------------|----------------------------------------|
E |---------------------------|----------------------------------------|
B !---------------------------!----------------------------------------!

                                                                        

e |---------17-------17-19----17-19-21~~~-----(21)~~~---------20hb~~---|
b |17-19-20----19-20-------20------------------------------------------|
G |--------------------------------------------------------------------|
D |--------------------------------------------------------------------|
A |--------------------------------------------------------------------|
E |--------------------------------------------------------------------|
B !--------------------------------------------------------------------!

                        

e |20hb~~---------20\--|
b |--------------------|
G |--------------------|
D |--------------------|
A |--------------------|
E |--------------------|
B !--------------------!
comments
We did not receive enough feedback on this tab! Please rate:
print report bad tab
1 2 3 4 5
I want to post or [tab]
guest
You may want to rate the tab now too:
select rating
Please do not post tabs as comments. Select "correction" instead!