Oops, an error
Loading. Please wait.

Believe In Nothing Tab

ver1
ver1

Whole song

Interactive

More versions @911Tabs.com
12,196 views 33 this week
1 commentread comment
1 2 3 4 5
accurate
x 5
Autoscroll
+/-
esc
set tempo
stop
Contributor
Difficulty
advanced
Hey! There's an official Ultimate Guitar app which is ideal
for learning songs when you're away from computer. Get the app
WARNING: You are trying to view
                                    content from Ultimate-Guitar.com
                                    in an unauthorized application,
                                    which is prohibited.

                                    Please use an official Ultimate
                                    Guitar Tabs application for iPhone,
                                    iPad or Android to access legitimate
                                    chords, guitar, bass, and drum tabs
                                    from Ultimate-Guitar.com database.

                                    Type "ultimate guitar tabs" in Apple
                                    App Store's or Android Market's
                                    search to find the application.
Gtr I (E A D G B E) - 'Rhythm'
Gtr II (E A D G B E) - 'Acoustic '
Gtr III (E A D G B E) - 'solo'


 Intro
  Q=135
  F#5       A5                 E5        G5
 4/4
  Gtr I
  Q  Q  E E Q    +H     H      Q  Q  E E Q
|-----------5--|-(5)----5----|-----------5--|
|-----------5--|-(5)----5----|-----------3--|
|--------------|-------------|--------------|
|-4--4------7--|-(7)----7----|-2--2------5--|
|-4--4------7--|-(7)----7----|-2--2------5--|
|-2--2--2-2-5--|-(5)----5----|-0--0--0-0-3--|


                F#5       A5          B5 A5
  +H     H      Q  Q  E E Q    +H     Q  Q
|-(5)----5----|-----------5--|-(5)----7--5----|
|-(3)----3----|-----------5--|-(5)----7--5----|
|-------------|--------------|----------------|
|-(5)----5----|-4--4------7--|-(7)----9--7----|
|-(5)----5----|-4--4------7--|-(7)----9--7----|
|-(3)----3----|-2--2--2-2-5--|-(5)----7--5----|


                               Verse
  E5        G5                  F#m9
  Q  Q  E E Q    +W             W
|-----------5--|-(5)--------||------------------|
|-----------3--|-(3)--------||o-----------------|
|--------------|------------||------------------|
|-2--2------5--|-(5)--------||--4---------------|
|-2--2------5--|-(5)--------||o-4---------------|
|-0--0--0-0-3--|-(3)--------||--2---------------|
|
| Gtr II
| W               W             E E E E E E E E
|--------------|------------||--------0-5-0-----|
|--------------|------------||o-----7-------7---|
|--------------|------------||----6-----------6-|
|--------------|------------||--4---------------|
|--------------|------------||o-----------------|
|--------------|------------||------------------|


                      Dsus2
  +W                  W
|-------------------|------------------|
|-------------------|------------------|
|-------------------|------------------|
|-(4)---------------|------------------|
|-(4)---------------|------------------|
|-(2)---------------|------------------|
|
|  E  E E E E E E E   Q  E E E E E E
|-------0-------4-5-|--------5---------|
|-----7-------5-----|----5-----5-------|
|---------6---------|------7-----7-----|
|--4--------2-------|-0------------0---|
|-------------------|------------------|
|-------------------|------------------|


                     A
  Gtr II
  E E E E  E E E E   E E E E E E E E   E E E E E E E E
|---5-----!5-------|---------5-------|---0-------5-----|
|-5---5---!5-5---5-|-----5-----5-----|---------5---5---|
|-------7-!7---7---|---6---6-----6---|---------------6-|
|---------!0-------|-----------------|-----6-----------|
|------------------|-0-------------0-|-7-----7---------|
|------------------|-----------------|-----------------|


                    1.,2.
  E
  E E E E E E E E   E E E E E E E E  3x
|---------4-------|---5-----5-4------||
|-----5-----5-----|-----5-------5---o||
|---4---4-----4---|-4-----4-------4--||
|-2-------------2-|------------------||
|-----------------|-----------------o||
|-----------------|------------------||


 Pre-Chorus
  3.
  E5        F#5     D5                       E5
  E E E E E E E E   W              W
|---5-----5-4-----|-------------|-----------------|
|-----5-------5---|-------------|-----------------|
|-4-----4-------4-|-------------|-----------------|
|-----------------|-------------|-----------------|
|-----------------|-------------|-----------------|
|-----------------|-------------|-----------------|
|
| Gtr I
| <
| H       E E E E   H    Q  E E   +E  E Q  E Q.
|-0---------------|------5--5-5-|-----------------|
|-0-------5-7---7-|------5--5-5-|-----------------|
|---------4-6---6-|-7-----------|-(7)-7-7----9----|
|-2-------2-4---4-|-7-----------|-(7)-7-7----9----|
|-2-------2-4---4-|-5-----------|-(5)-5-5----7----|
|-0-------0-2-----|-------------|-----------------|


    F#5                    E5     F#5
  W                     W
|-------------------|--------------------|
|-------------------|--------------------|
|-------------------|--------------------|
|-------------------|--------------------|
|-------------------|--------------------|
|-------------------|--------------------|
|
| E  E E E  Q.    E    +E  E Q.    Q.
|-------------------|--------------------|
|-------------------|--------------------|
|-9-11-----11----11-|-(11)-9-9----11-----|
|-9-11-----11----11-|-(11)-9-9----11-----|
|-7--9-9-9--9-----9-|--(9)-7-7-----9-----|
|-------------------|--------------------|


  D5                       E5       F#5                    E5   Esus4
  Gtr I
  H    Q  E E   +E  E Q  E Q.     E  E E E  Q.    E    +E  E Q   H
|------5--5-5-|-----------------|-------------------|-----------------|
|------5--5-5-|-----------------|-------------------|-----------10----|
|-7-----------|-(7)-7-7----9----|-9-11-----11----11-|-(11)-9-9---9----|
|-7-----------|-(7)-7-7----9----|-9-11-----11----11-|-(11)-9-9---9----|
|-5-----------|-(5)-5-5----7----|-7--9-9-9--9-----9-|--(9)-7-7---7----|
|-------------|-----------------|-------------------|-----------------|


 Chorus
  F#5        A5                      E5                    G5
  Q   Q  E E Q      +H        H       Q   Q            E E Q
|------------5----|-(5)-------5----|-----------------------5--|
|------------5----|-(5)-------5----|-----------------------3--|
|-----------------|----------------|--------------------------|
|-4---4------7----|-(7)-------7----|--2---2----------------5--|
|-4---4------7----|-(7)-------7----|--2---2----------------5--|
|-2---2--2-2-5----|-(5)-------5----|--0---0------------0-0-3--|
|
| Gtr III
|                                             |--3---|
| Q   Q  Q   Q      +Q    H.          Q   E  +S   S  S Q   Q
|------------7b9--|-(7)------------|--------------------------|
|-7--10--7--------|------10--------|-12--10-(10)-12-10-9---8--|
|-----------------|----------------|--------------------------|
|-----------------|----------------|--------------------------|
|-----------------|----------------|--------------------------|
|-----------------|----------------|--------------------------|


                F#5        A5               B5 A5
  +H     H      Q   Q  E E Q      +H        Q  Q
|-(5)----5----|------------5----|-(5)-------7--5----|
|-(3)----3----|------------5----|-(5)-------7--5----|
|-------------|-----------------|-------------------|
|-(5)----5----|-4---4------7----|-(7)-------9--7----|
|-(5)----5----|-4---4------7----|-(7)-------9--7----|
|-(3)----3----|-2---2--2-2-5----|-(5)-------7--5----|
|
| +W            Q   Q  Q   Q      +Q    H.
|-------------|------------7b9--|-(7)---------------|
|-(8)---------|-7--10--7--------|------10-----------|
|-------------|-----------------|-------------------|
|-------------|-----------------|-------------------|
|-------------|-----------------|-------------------|
|-------------|-----------------|-------------------|


                                         Guitar Solo 1
  E5                    G5                F#m9
   Q   Q            E E Q    +W           W
|-----------------------5--|-(5)--------|--------------------|
|-----------------------3--|-(3)--------|--------------------|
|--------------------------|------------|--------------------|
|--2---2----------------5--|-(5)--------|-4------------------|
|--2---2----------------5--|-(5)--------|-4------------------|
|--0---0------------0-0-3--|-(3)--------|-2------------------|
|
|          |--3---|
|  Q   E  +S   S  S Q   Q    +W           H        Q    E  E
|--------------------------|------------|--------------------|
|-12--10-(10)-12-10-9---8--|-(8)--------|---------10---12-12-|
|--------------------------|------------|--------------------|
|--------------------------|------------|--------------------|
|--------------------------|------------|--------------------|
|--------------------------|------------|--------------------|
|
| Gtr II
|  W                          W           E E E E  E E  E  E
|--------------------------|------------|-------0--5-0-------|
|--------------------------|------------|-----7---------7----|
|--------------------------|------------|---6--------------6-|
|--------------------------|------------|-4------------------|
|--------------------------|------------|--------------------|
|--------------------------|------------|--------------------|


                         Dsus2
   +W                     W
|----------------------|-------------------------|
|----------------------|-------------------------|
|----------------------|-------------------------|
|--(4)-----------------|-------------------------|
|--(4)-----------------|-------------------------|
|--(2)-----------------|-------------------------|
|
|  +Q     Q   Q    Q      H          +Q     E  E
|----------------------|-------------------------|
|-(12)---10---9---10---|-10b12------(10)---10-10-|
|----------------------|-------------------------|
|----------------------|--9----------(9)---------|
|----------------------|-------------------------|
|----------------------|-------------------------|
|
|   E  E  E E E E  E E    Q     E E   E  E  E  E
|---------0--------4-5-|--------------5----------|
|------7--------5------|--------5--------5-------|
|-----------6----------|----------7---------7----|
|---4---------2--------|--0--------------------0-|
|----------------------|-------------------------|
|----------------------|-------------------------|


                               A
  Gtr II
    E  E E    E  E E  E    E    E E E E E E E E
|------5--------!5-----------|----------5-------|
|---5----5------!5-5-------5-|------5-----5-----|
|-------------7-!7----7------|----6---6-----6---|
|---------------!0-----------|------------------|
|----------------------------|--0-------------0-|
|----------------------------|------------------|
|
| Gtr III
|                               ~~
|  +Q    S  S E  Q    Q         W
|--------9-10-9--7-----------|------------------|
|-(10)---------------14b15---|-10---------------|
|----------------------------|------------------|
|----------------------------|------------------|
|----------------------------|------------------|
|----------------------------|------------------|


                               E
    E  E E E   E   E    E  E   E E E E E E E E
|------0-----------5---------|---------4-------|
|--------------5--------5----|-----5-----5-----|
|--------------------------6-|---4---4-----4---|
|--------6-------------------|-2-------------2-|
|---7------7-----------------|-----------------|
|----------------------------|-----------------|
|
|                              ~
|  +H         +E   Q       E   W
|----------------------------|-----------------|
|-(10)-------(10)-10b12---10-|-9---------------|
|----------------------------|-----------------|
|----------------------------|-----------------|
|----------------------------|-----------------|
|----------------------------|-----------------|


                     Verse 2
                      F#m9
  E   E E E E E E E   E E E E E E E E    E  E E E E E E E
|-----5-----5-4-----|-------0-5-0-----|-------0-------4-5-|
|-------5-------5---|-----7-------7---|-----7-------5-----|
|-4-------4-------4-|---6-----------6-|---------6---------|
|-------------------|-4---------------|--4--------2-------|
|-------------------|-----------------|-------------------|
|-------------------|-----------------|-------------------|
|
| W                   W                 +W
|-------------------|-----------------|-------------------|
|-5b7---------------|-7---------------|-(7)---------------|
|-------------------|-----------------|-------------------|
|-2b4---------------|-4---------------|-(4)---------------|
|-------------------|-----------------|-------------------|
|-------------------|-----------------|-------------------|


  Dsus2                               A
  Q  E E E E E E   E E E E  E E E E   E E E E E E E E
|--------5-------|---5-----!5-------|---------5-------|
|----5-----5-----|-5---5---!5-5---5-|-----5-----5-----|
|------7-----7---|-------7-!7---7---|---6---6-----6---|
|-0------------0-|---------!0-------|-----------------|
|----------------|------------------|-0-------------0-|
|----------------|------------------|-----------------|


                    E
  E E E E E E E E   E E E E E E E E
|---0-------5-----|---------4---------|
|---------5---5---|-----5-----5-------|
|---------------6-|---4---4-----4-----|
|-----6-----------|-2-------------2---|
|-7-----7---------|-------------------|
|-----------------|-------------------|


 Pre-Chorus
  E5        F#5 F#5(D5pe 2)                  E5
  E E E E E E E E   W              W
|---5-----5-4-----|-------------|-----------------|
|-----5-------5---|-------------|-----------------|
|-4-----4-------4-|-------------|-----------------|
|-----------------|-------------|-----------------|
|-----------------|-------------|-----------------|
|-----------------|-------------|-----------------|
|
| Gtr I
| <
| H       E E E E   H    Q  E E   +E  E Q  E Q.
|-0---------------|------5--5-5-|-----------------|
|-0-------5-7---7-|------5--5-5-|-----------------|
|---------4-6---6-|-7-----------|-(7)-7-7----9----|
|-2-------2-4---4-|-7-----------|-(7)-7-7----9----|
|-2-------2-4---4-|-5-----------|-(5)-5-5----7----|
|-0-------0-2-----|-------------|-----------------|


    F#5                    E5     F#5
  W                     W
|-------------------|--------------------|
|-------------------|--------------------|
|-------------------|--------------------|
|-------------------|--------------------|
|-------------------|--------------------|
|-------------------|--------------------|
|
| E  E E E  Q.    E    +E  E Q.    Q.
|-------------------|--------------------|
|-------------------|--------------------|
|-9-11-----11----11-|-(11)-9-9----11-----|
|-9-11-----11----11-|-(11)-9-9----11-----|
|-7--9-9-9--9-----9-|--(9)-7-7-----9-----|
|-------------------|--------------------|


  D5                       E5       F#5                    E5   Esus4
  Gtr I
  H    Q  E E   +E  E Q  E Q.     E  E E E  Q.    E    +E  E Q   H
|------5--5-5-|-----------------|-------------------|-----------------|
|------5--5-5-|-----------------|-------------------|-----------10----|
|-7-----------|-(7)-7-7----9----|-9-11-----11----11-|-(11)-9-9---9----|
|-7-----------|-(7)-7-7----9----|-9-11-----11----11-|-(11)-9-9---9----|
|-5-----------|-(5)-5-5----7----|-7--9-9-9--9-----9-|--(9)-7-7---7----|
|-------------|-----------------|-------------------|-----------------|


 Chorus
  F#5       A5                 E5        G5               F#5
  Q  Q  E E Q    +H     H      Q  Q  E E Q    +H     H
|-----------5--|-(5)----5----|-----------5--|-(5)----5----|
|-----------5--|-(5)----5----|-----------3--|-(3)----3----|
|--------------|-------------|--------------|-------------|
|-4--4------7--|-(7)----7----|-2--2------5--|-(5)----5----|
|-4--4------7--|-(7)----7----|-2--2------5--|-(5)----5----|
|-2--2--2-2-5--|-(5)----5----|-0--0--0-0-3--|-(3)----3----|


            A5          B5 A5   E5        G5
  Q  Q  E E Q    +H     Q  Q    Q  Q  E E Q    +W
|-----------5--|-(5)----7--5--|-----------5--|-(5)----|
|-----------5--|-(5)----7--5--|-----------3--|-(3)----|
|--------------|--------------|--------------|--------|
|-4--4------7--|-(7)----9--7--|-2--2------5--|-(5)----|
|-4--4------7--|-(7)----9--7--|-2--2------5--|-(5)----|
|-2--2--2-2-5--|-(5)----7--5--|-0--0--0-0-3--|-(3)----|


  F#5       A5                 E5        G5
  Q  Q  E E Q    +H     H      Q  Q  E E Q    +H     H
|-----------5--|-(5)----5----|-----------5--|-(5)----5----|
|-----------5--|-(5)----5----|-----------3--|-(3)----3----|
|--------------|-------------|--------------|-------------|
|-4--4------7--|-(7)----7----|-2--2------5--|-(5)----5----|
|-4--4------7--|-(7)----7----|-2--2------5--|-(5)----5----|
|-2--2--2-2-5--|-(5)----5----|-0--0--0-0-3--|-(3)----3----|


  F#5       A5          B5 A5   E5        G5
  Q  Q  E E Q    +H     Q  Q    Q  Q  E E Q    +W
|-----------5--|-(5)----7--5--|-----------5--|-(5)----|
|-----------5--|-(5)----7--5--|-----------3--|-(3)----|
|--------------|--------------|--------------|--------|
|-4--4------7--|-(7)----9--7--|-2--2------5--|-(5)----|
|-4--4------7--|-(7)----9--7--|-2--2------5--|-(5)----|
|-2--2--2-2-5--|-(5)----7--5--|-0--0--0-0-3--|-(3)----|


 Guitar Break
  Eadd11
  Gtr II
   E E E E E E E E     E  E E E  E E E E
|----------5-------|-------------5-------|
|----9---9---9---9-|------9---9----9---9-|
|--9---9-------9---|---9----9--------9---|
|------------------|---------------------|
|------------------|---------------------|
|------------------|---------------------|
|
| Gtr III
|  <                             <
|  W                  +H         H
|-12---------------|-(12)-------14-------|
|------------------|---------------------|
|------------------|---------------------|
|------------------|---------------------|
|------------------|---------------------|
|------------------|---------------------|


  Amaj7sus4/D
   E E E E  E E E E    E E E E  E E E E
|-----------5-------|-----------5--------|
|----9---9----9---9-|----9---9----9---9--|
|--7---7--------7---|--7---7--------7----|
|-------------------|--------------------|
|-------------------|--------------------|
|-------------------|--------------------|
|
|  <        <          <        <
|  H        H          H        H
|-16-------17-------|-14-------16--------|
|-------------------|--------------------|
|-------------------|--------------------|
|-------------------|--------------------|
|-------------------|--------------------|
|-------------------|--------------------|


  Amaj7/C#
   E E E E E E E E     E  E E E  E    E  E E
|----------5-------|-------------5-----------|
|----9---9---9---9-|------9---9-------9----9-|
|--6---6-------6---|---6----6------------6---|
|------------------|-------------------------|
|------------------|-------------------------|
|------------------|-------------------------|
|
|  <
|  W                  +H         Q       Q
|-12---------------|-(12)-------12b14---12---|
|------------------|-------------------------|
|------------------|-------------------------|
|------------------|-------------------------|
|------------------|-------------------------|
|------------------|-------------------------|
|
| Gtr I
|  W                   W
|------------------|-------------------------|
|------------------|-------------------------|
|------------------|-------------------------|
|------------------|-------------------------|
|------------------|-------------------------|
|------------------|-------------------------|


                          Guitar Solo 2
  Am/maj7/C                Am6/C
    E  E E E   E  E E  E    E  E  E  E  E  E  E  E
|--------------5---------|--------------0-----5-----|
|------9---9------9----9-|-----7-----7--7--7--7--7--|
|---5----5----------5----|--5-----5-----5--5--5--5--|
|------------------------|--------------------------|
|------------------------|--------------------------|
|------------------------|--------------------------|
|
|   ~~~~~~~~~~~~~~
|  +H         +Q.      E    E  E  E  E  E  E  E  E
|-(12)-------(12)-----12-|-12-12-12-12-12-12-12-12--|
|------------------------|-------------10-10-10-10--|
|------------------------|--------------------------|
|------------------------|--------------------------|
|------------------------|--------------------------|
|------------------------|--------------------------|
|
|                           <
|   W                       W
|------------------------|--0-----------------------|
|------------------------|--0-----------------------|
|------------------------|--------------------------|
|------------------------|--2-----------------------|
|------------------------|--------------------------|
|------------------------|--------------------------|


  F#5         A5                       E5             G5
  Gtr III
                      ~~~~                ~~~
   H      Q    Q     +Q    Q  E  Q.    E  Q.    E  Q.
|-12-----12---12--|-(12)--10p=9-10p==|=9-10-----9h10-----|
|-10-----10-------|------------------|-------------------|
|-----------------|------------------|-------------------|
|-----------------|------------------|-------------------|
|-----------------|------------------|-------------------|
|-----------------|------------------|-------------------|
|
| Gtr I
|  Q  Q   E E  Q     +H       H        Q     Q  E  E  Q
|--------------5--|--(5)------5------|----------------5--|
|--------------5--|--(5)------5------|----------------3--|
|-----------------|------------------|-------------------|
|--4--4--------7--|--(7)------7------|-2-----2--------5--|
|--4--4--------7--|--(7)------7------|-2-----2--------5--|
|--2--2---2-2--5--|--(5)------5------|-0-----0--0--0--3--|


                       F#5        A5
   ~~~~~~~              ~~~
   Q    H      Q        H.         Q
|--9-----------------|------------------|
|------10-----10b12--|-10h========12----|
|--------------------|------------------|
|--------------------|------------------|
|--------------------|------------------|
|--------------------|------------------|
|
| +H       H            Q  Q  E E  Q
|-(5)------5---------|-------------5----|
|-(3)------3---------|-------------5----|
|--------------------|------------------|
|-(5)------5---------|--4--4-------7----|
|-(5)------5---------|--4--4-------7----|
|-(3)------3---------|--2--2--2-2--5----|


                 B5 A5       E5             G5
              ~~~             ~~~                   ~~~~          ~~~~~~
   a  Q    E  Q.     Q        H      Q    a  Q     +E   E  Q   E  Q.
|--------------------------|--------------------|----------------------|
|-12h14---15p14-----15b17--|-15p====14---14p12--|-(12)-12-12--12p10----|
|--------------------------|--------------------|----------------------|
|--------------------------|--------------------|----------------------|
|--------------------------|--------------------|----------------------|
|--------------------------|--------------------|----------------------|
|
|    +H          Q   Q        Q  Q   E E     Q     +W
|----(5)---------7---5-----|-----------------5--|--(5)-----------------|
|----(5)---------7---5-----|-----------------3--|--(3)-----------------|
|--------------------------|--------------------|----------------------|
|----(7)---------9---7-----|--2--2-----------5--|--(5)-----------------|
|----(7)---------9---7-----|--2--2-----------5--|--(5)-----------------|
|----(5)---------7---5-----|--0--0---0-0-----3--|--(3)-----------------|


  F#5         A5                              E5                     G5
 ~~~~
   H      Q    E   E     +Q    Q    E    Q.      E   Q.      E    Q.
|--------12---12--12--|-(12)------------------|---------------------------|
|-10-----10---10-(10)-|-(10)--15p==14h==15----|-14h=15p=====14h==15-------|
|---------------------|-------14--(14)-(14)---|-14-(14)----(14)-(14)------|
|---------------------|-----------------------|---------------------------|
|---------------------|-----------------------|---------------------------|
|---------------------|-----------------------|---------------------------|
|
|  Q  Q   E E  Q         +H         H            Q      Q    E    E  Q
|--------------5------|--(5)--------5---------|----------------------5----|
|--------------5------|--(5)--------5---------|----------------------3----|
|---------------------|-----------------------|---------------------------|
|--4--4--------7------|--(7)--------7---------|--2------2------------5----|
|--4--4--------7------|--(7)--------7---------|--2------2------------5----|
|--2--2---2-2--5------|--(5)--------5---------|--0------0----0----0--3----|


                       F#5        A5                B5 A5
        ~~~~~~~~~~~~~~~~~~~                             ~~~~~~~
   Q    H      Q        H.         Q     Q    E  Q.     Q
|--------------------|----------------|-----------------------|
|-14---10-----10b12--|-10h========12--|-14h==15-14-----15b17--|
|-14-----------------|----------------|-----------------------|
|--------------------|----------------|-----------------------|
|--------------------|----------------|-----------------------|
|--------------------|----------------|-----------------------|
|
| +H       H            Q  Q  E E  Q    +H          Q   Q
|-(5)------5---------|-------------5--|-(5)---------7---5-----|
|-(3)------3---------|-------------5--|-(5)---------7---5-----|
|--------------------|----------------|-----------------------|
|-(5)------5---------|--4--4-------7--|-(7)---------9---7-----|
|-(5)------5---------|--4--4-------7--|-(7)---------9---7-----|
|-(3)------3---------|--2--2--2-2--5--|-(5)---------7---5-----|


  E5             G5                          A5           Csus2
 ~~~~~                                ~~~~~~~~~~~     ~~~~~~~~~~
   H      Q    a  Q     +E   E  E. S  H       Q   Q   Q    Q
|--------------------|---------------------|-17h=20--17---22b24--|
|-15p====14---14p12--|-(12)-12-12p10-10----|---------------------|
|--------------------|---------------------|---------------------|
|--------------------|---------------------|---------------------|
|--------------------|---------------------|--0---3---0----5b7---|
|--------------------|---------------------|---------------------|
|                                             Q   Q   Q    Q
|
|  Q  Q   E E     Q     +W                    Q   Q   E E  Q
|-----------------5--|--(5)----------------|--------------10-----|
|-----------------3--|--(3)----------------|---------------8-----|
|--------------------|---------------------|---------------------|
|--2--2-----------5--|--(5)----------------|--7---7-------10-----|
|--2--2-----------5--|--(5)----------------|--7---7-------10-----|
|--0--0---0-0-----3--|--(3)----------------|--5---5---5-5--8-----|


                    G5                        Bbsus2
         ~~~                                   ~~
                                |--3---|
    Q    H.          Q      E  +S   S  S  Q    Q
|--22---20--------|-20b22--20-(20)-22-20-19---18--|
|-----------------|-------------------------------|
|-----------------|-------------------------------|
|-----------------|-------------------------------|
|--(5)---3-----3--|--5------3--(3)--5--3--2----1--|
|-----------------|-------------------------------|
|  +Q    H     Q     Q      E  +S   S  S  Q    Q
|                               |--3---|
|
|  +W                Q      Q             E E  Q
|-(10)------------|----------------------------8--|
|--(8)------------|----------------------------6--|
|-----------------|-------------------------------|
|-(10)------------|--5------5------------------8--|
|-(10)------------|--5------5------------------8--|
|--(8)------------|--3------3-------------3-3--6--|


                A5           C5
                 ~~~     ~~
   +W            Q   Q   Q    Q
|-(18)--------|-17h=20--17---22b24---|
|-------------|---------------3b5----|
|-------------|--2---5---2-----------|
|-------------|----------------------|
|--(1)--------|----------------------|
|-------------|----------------------|
|  +W            Q   Q   Q    Q
|
|  +W            Q   Q   E E  Q
|--(8)--------|----------------------|
|--(6)--------|----------------------|
|-------------|--2---2--------5------|
|--(8)--------|--2---2--------5------|
|--(8)--------|--0---0---0-0--3------|
|--(6)--------|----------------------|


       D5     C5   G5                              Bb5
        ~~~                                   ~~~~~    ~~~
                               |--3---|
   Q    H.          Q      E  +S   S  S  Q    Q        W
|-22---20--------|-20b22--20-(20)-22-20-19---15b17--|-17---------|
|--3-------------|----------------------------------|------------|
|-------5-----5--|--7------------------------12b14--|-14---------|
|----------------|--------10-(10)-12-10--9----------|------------|
|----------------|----------------------------------|------------|
|----------------|----------------------------------|------------|
|  Q    H     Q     Q      E  +S   S  S  Q    Q
|                              |--3---|
|
| +Q    H     Q     Q      Q             E E  Q       +W
|----------------|----------------------------------|------------|
|----------------|----------------------------------|------------|
|-(5)---7-----5--|----------------------------------|------------|
|-(5)---7-----5--|--5------5------------------8-----|-(8)--------|
|-(3)---5-----3--|--5------5------------------8-----|-(8)--------|
|----------------|--3------3-------------3-3--6-----|-(6)--------|


 Out-Chorus
  F#5           A5                       E5             G5
                                            ~~~               ~~~~~~~
   +H       Q    Q     +Q    Q  E  Q.    E  Q.    E  Q.       Q    H      Q
|-(17)-----12---12--|-(12)--10p=9-10p==|=9-10-----9h10-----|--9-----------------|
|----------10-------|------------------|-------------------|------10-----10b12--|
|-------------------|------------------|-------------------|--------------------|
|-------------------|------------------|-------------------|--------------------|
|-------------------|------------------|-------------------|--------------------|
|-------------------|------------------|-------------------|--------------------|
|
|   Q   Q   E E  Q     +H       H        Q     Q  E  E  Q    +H       H
|----------------5--|--(5)------5------|----------------5--|-(5)------5---------|
|----------------5--|--(5)------5------|----------------3--|-(3)------3---------|
|-------------------|------------------|-------------------|--------------------|
|---4---4--------7--|--(7)------7------|-2-----2--------5--|-(5)------5---------|
|---4---4--------7--|--(7)------7------|-2-----2--------5--|-(5)------5---------|
|---2---2---2-2--5--|--(5)------5------|-0-----0--0--0--3--|-(3)------3---------|


  F#5        A5                   B5 A5
   ~~~                         ~~~
   H.         Q     a  Q    E  Q.     Q
|----------------|--------------------------|
|-10h========12--|-12h14---15p14-----15b17--|
|----------------|--------------------------|
|----------------|--------------------------|
|----------------|--------------------------|
|----------------|--------------------------|
|
|  Q  Q  E E  Q       +H          Q   Q
|-------------5--|----(5)---------7---5-----|
|-------------5--|----(5)---------7---5-----|
|----------------|--------------------------|
|--4--4-------7--|----(7)---------9---7-----|
|--4--4-------7--|----(7)---------9---7-----|
|--2--2--2-2--5--|----(5)---------7---5-----|


  E5             G5
   ~~~                   ~~~~          ~~~
   H      Q    a  Q     +E   E  Q   E  Q.
|--------------------|-----------------------|
|-15p====14---14p12--|-(12)-12-12--12p10-----|
|--------------------|-----------------------|
|--------------------|-----------------------|
|--------------------|-----------------------|
|--------------------|-----------------------|
|
|  Q  Q   E E     Q     +W
|-----------------5--|--(5)------------------|
|-----------------3--|--(3)------------------|
|--------------------|-----------------------|
|--2--2-----------5--|--(5)------------------|
|--2--2-----------5--|--(5)------------------|
|--0--0---0-0-----3--|--(3)------------------|


  F#5           F#5                      E5             G5
                                            ~~~
   +H       Q    Q     +Q    Q  E  Q.    E  Q.    E  Q.
|----------12---12--|-(12)--10p=9-10p==|=9-10-----9h10-----|
|-(10)-----10-------|------------------|-------------------|
|-------------------|------------------|-------------------|
|-------------------|------------------|-------------------|
|-------------------|------------------|-------------------|
|-------------------|------------------|-------------------|
|
|   Q   Q   E E  Q     +H       H        Q     Q  E  E  Q
|----------------5--|--(5)------5------|----------------5--|
|----------------5--|--(5)------5------|----------------3--|
|-------------------|------------------|-------------------|
|---4---4--------7--|--(7)------7------|-2-----2--------5--|
|---4---4--------7--|--(7)------7------|-2-----2--------5--|
|---2---2---2-2--5--|--(5)------5------|-0-----0--0--0--3--|


                       F#5        A5
   ~~~~~~~              ~~~
   Q    H      Q        H.         Q
|--9-----------------|------------------|
|------10-----10b12--|-10h========12----|
|--------------------|------------------|
|--------------------|------------------|
|--------------------|------------------|
|--------------------|------------------|
|
| +H       H            Q  Q  E E  Q
|-(5)------5---------|-------------5----|
|-(3)------3---------|-------------5----|
|--------------------|------------------|
|-(5)------5---------|--4--4-------7----|
|-(5)------5---------|--4--4-------7----|
|-(3)------3---------|--2--2--2-2--5----|


          B5       A5       E5             G5
              ~~~            ~~~
   a  Q    E  Q.    Q        H      Q    a  Q
|-------------------------|--------------------|
|-12h14---15p14----15b17--|-15p====14---14p12--|
|-------------------------|--------------------|
|-------------------------|--------------------|
|-------------------------|--------------------|
|-------------------------|--------------------|
|
|    +Q    H        Q        Q  Q   E E     Q
|----(5)---7--------5-----|-----------------5--|
|----(5)---7--------5-----|-----------------3--|
|-------------------------|--------------------|
|----(7)---9--------7-----|--2--2-----------5--|
|----(7)---9--------7-----|--2--2-----------5--|
|----(5)---7--------5-----|--0--0---0-0-----3--|


                         F#5         A5
    ~~~~          ~~~
   +E   E  Q   E  Q.      H      Q    Q     +Q    Q  E  Q.
|----------------------|--------12---12--|-(12)--10p=9-10----|
|-(12)-12-12--12p10----|-10-----10-------|-------------------|
|----------------------|-----------------|-------------------|
|----------------------|-----------------|-------------------|
|----------------------|-----------------|-------------------|
|----------------------|-----------------|-------------------|
|
|  +W                     Q  Q   E E  Q     +H       H
|--(5)-----------------|--------------5--|--(5)------5-------|
|--(3)-----------------|--------------5--|--(5)------5-------|
|----------------------|-----------------|-------------------|
|--(5)-----------------|--4--4--------7--|--(7)------7-------|
|--(5)-----------------|--4--4--------7--|--(7)------7-------|
|--(3)-----------------|--2--2---2-2--5--|--(5)------5-------|


  E5             G5
     ~~~               ~~~~~~~
  E  Q.    E  Q.       Q    H      Q
|-9-10-----9h10-----|--9-----------------|
|-------------------|------10-----10b12--|
|-------------------|--------------------|
|-------------------|--------------------|
|-------------------|--------------------|
|-------------------|--------------------|
|
| Q     Q  E  E  Q    +H       H
|----------------5--|-(5)------5---------|
|----------------3--|-(3)------3---------|
|-------------------|--------------------|
|-2-----2--------5--|-(5)------5---------|
|-2-----2--------5--|-(5)------5---------|
|-0-----0--0--0--3--|-(3)------3---------|


  F#5        A5                   B5 A5
   ~~~                         ~~~
   H.         Q     a  Q    E  Q.     Q
|----------------|--------------------------|
|-10h========12--|-12h14---15p14-----15b17--|
|----------------|--------------------------|
|----------------|--------------------------|
|----------------|--------------------------|
|----------------|--------------------------|
|
|  Q  Q  E E  Q       +H          Q   Q
|-------------5--|----(5)---------7---5-----|
|-------------5--|----(5)---------7---5-----|
|----------------|--------------------------|
|--4--4-------7--|----(7)---------9---7-----|
|--4--4-------7--|----(7)---------9---7-----|
|--2--2--2-2--5--|----(5)---------7---5-----|


  E5             G5                           F#5
   ~~~                   ~~~~          ~~~
   H      Q    a  Q     +E   E  Q   E  Q.      H     H
|--------------------|----------------------|-------------*|
|-15p====14---14p12--|-(12)-12-12--12p10----|-10----------*|
|--------------------|----------------------|-------------*|
|--------------------|----------------------|-------------*|
|--------------------|----------------------|-------------*|
|--------------------|----------------------|-------------*|
|
|  Q  Q   E E     Q     +W                     Q  Q  H
|-----------------5--|--(5)-----------------|--2--2-------*|
|-----------------3--|--(3)-----------------|--2--2-------*|
|--------------------|----------------------|-------------*|
|--2--2-----------5--|--(5)-----------------|--4--4-------*|
|--2--2-----------5--|--(5)-----------------|--4--4-------*|
|--0--0---0-0-----3--|--(3)-----------------|--2--2-------*|




--------------------------------------------------------------------------------


Duration Legend
---------------
W - whole; H - half; Q - quarter; E - 8th; S - 16th; T - 32nd; X - 64th; a - acciaccatura
+ - note tied to previous; . - note dotted; .. - note double dotted
Uncapitalized letters represent notes that are staccato (1/2 duration)
Irregular groupings are notated above the duration line
Duration letters will always appear directly above the note/fret number it represents the
duration for.  Duration letters with no fret number below them represent rests.  Multi-
bar rests are notated in the form Wxn, where n is the number of bars to rest for.  Low
melody durations appear below the staff

Tablature Legend
----------------
 h   - hammer-on
 p   - pull-off
 b   - bend
 pb  - pre-bend
 r   - bend release (if no number after the r, then release immediately)
 /\  - slide into or out of (from/to "nowhere")
 s   - legato slide
 S   - shift slide
 - natural harmonic
[n]  - artificial harmonic
n(n) - tapped harmonic
 ~   - vibrato
 tr  - trill
 T   - tap
 TP  - trem. picking
 PM  - palm muting
\n/  - tremolo bar dip; n = amount to dip
 \n  - tremolo bar down
 n/  - tremolo bar up
/n\  - tremolo bar inverted dip
 =   - hold bend; also acts as connecting device for hammers/pulls
 <> - volume swell (louder/softer)
 x   - on rhythm slash represents muted slash
 o   - on rhythm slash represents single note slash

Misc Legend
-----------
 |  - bar
||  - double bar
||o - repeat start
o|| - repeat end
*|  - double bar (ending)
 :  - bar (freetime)
 $  - Segno
 &  - Coda
Tempo markers -  = BPM(8/16=s8/s16), where s8 = swing 8ths, s16 = swing 16ths


comments
print report bad tab
1 comment total.
0 reply
Killamanjaro 14 wrote on April 25 2009, 12:58 am

the rhythm guitar isnt really that well done...

I want to post or [tab]
guest
You may want to rate the tab now too:
select rating
Please do not post tabs as comments. Select "correction" instead!