Oops, an error
Loading. Please wait.

Create The Infinite Tab

ver1
ver1

Whole song

Interactive

More versions @911Tabs.com
656 views 1 this week
no commentswrite comment
1 2 3 4 5
please rate
Autoscroll
+/-
esc
set tempo
stop
Contributor
Tuning
C# G# C# F# A# D#
WARNING: You are trying to view
                                    content from Ultimate-Guitar.com
                                    in an unauthorized application,
                                    which is prohibited.

                                    Please use an official Ultimate
                                    Guitar Tabs application for iPhone,
                                    iPad or Android to access legitimate
                                    chords, guitar, bass, and drum tabs
                                    from Ultimate-Guitar.com database.

                                    Type "ultimate guitar tabs" in Apple
                                    App Store's or Android Market's
                                    search to find the application.
Tempo: 110
Tuning: C#G#C#F#A#D#

       E    E.      S S S S S S S S S S S S    S S S S S S S S S S S S  
D#||----------|--------------------------|--------------------------|
A#||----------|--------------------------|--------------------------|
F#||----------|--------------------------|--------------------------|
C#||----------|--------------------------|--------------------------|
G#||----16\---|------5-------5-0-6-0-5-0-|------5-----------3-----1-|
C#||----16\---|--0-7---7-5-0-------------|--0-7---7-5-0-0-5---0-3---|


  S S S S S S S S S S S S    S S S S S S S S S S  S S  
--------------------------|---------------------------|
--------------------------|---------------------------|
--------------------------|---------------------------|
--------------------------|---------------------------|
------5-------5-0-6-0-5-0-|------5-----------5-8------|
--0-7---7-5-0-------------|--0-7---7-5-0-5-7-----10-8-|


  S S S S S S S S S S S S    S S S S S S S S S S S S  
--------------------------|--------------------------|
--------------------------|--------------------------|
--------------------------|--------------------------|
--------------------------|--------------------------|
------5-------5-0-6-0-5-0-|------5-----------3-----1-|
--0-7---7-5-0-------------|--0-7---7-5-0-0-5---0-3---|


  S S S S S S S S S S S S    S S S S S S S S S S  S S  
--------------------------|---------------------------|
--------------------------|---------------------------|
--------------------------|---------------------------|
--------------------------|---------------------------|
------5-------5-0-6-0-5-0-|------5-----------5-8------|
--0-7---7-5-0-------------|--0-7---7-5-0-5-7-----10-8-|


    S S S E.  S S S S S S    S S S E.  S S S S S S    S S S E.  S S S S S S  
|-------------------------|------------------------|------------------------|
|-------------------------|------------------------|------------------------|
|*------------------------|------------------------|------------------------|
|*------------------------|----------------------3-|------------------------|
|---0-0-0-----0-3-1-0-3-1-|--0-0-0-----0-3-1-0-3-3-|--0-0-0-----0-3-1-0-3-1-|
|---0-0-0-----0-3-1-0-3-1-|--0-0-0-----0-3-1-0-3---|--0-0-0-----0-3-1-0-3-1-|


  S S S E.  S S S E.       S S S E.  S S S S S S    S S S E.  S S S S S S  
-----------------------||------------------------|------------------------|
-----------------------||------------------------|------------------------|
----------------------*||------------------------|------------------------|
----------------------*||------------------------|----------------------3-|
--0-1-0-1---0-4-0-4----||--0-0-0-----0-3-1-0-3-1-|--0-0-0-----0-3-1-0-3-3-|
--0-1-0-1---0-4-0-4----||--0-0-0-----0-3-1-0-3-1-|--0-0-0-----0-3-1-0-3---|


  S S S E.  S S S S S S    S S S E.  S S S E.     S S S E.  S S S S S S  
------------------------|----------------------|------------------------|
------------------------|----------------------|------------------------|
------------------------|----------------------|------------------------|
------------------------|----------------------|------------------------|
--0-0-0-----0-3-1-0-3-1-|--0-1-0-1---0-4-0-4---|--0-0-0-----0-3-1-0-3-1-|
--0-0-0-----0-3-1-0-3-1-|--0-1-0-1---0-4-0-4---|--0-0-0-----0-3-1-0-3-1-|


  S S S E.  S S S S S S    S S S E.  S S S S S S    S S S E.  S S S E.   
------------------------|------------------------|----------------------|
------------------------|------------------------|----------------------|
------------------------|------------------------|----------------------|
----------------------3-|------------------------|----------------------|
--0-0-0-----0-3-1-0-3-3-|--0-0-0-----0-3-1-0-3-1-|--0-1-0-1---0-4-0-4---|
--0-0-0-----0-3-1-0-3---|--0-0-0-----0-3-1-0-3-1-|--0-1-0-1---0-4-0-4---|


  S S S  S S S  S S S  S  S  S      S S S S S S S S S S S S  
-------------------------------||---------------------------|
-------------------------------||---------------------------|
-------------------------------||*--------------------------|
--------10-7-------------12----||*--------------------------|
------8------8--------10----10-||---5-4-0-5-4-0-5-4-0-5-4-0-|
--0-7----------10-0-9----------||---5-4-0-5-4-0-5-4-0-5-4-0-|


  S S S S S S S S S S S S  3x  S S S S S S S S S S S S  
---------------------------||--------------------------|
---------------------------||--------------------------|
--------------------------*||--------------------------|
--------------------------*||--------------------------|
--4-3-0-4-3-0-3-2-0-2-1-0--||--5-4-0-5-4-0-5-4-0-5-4-0-|
--4-3-0-4-3-0-3-2-0-2-1-0--||--5-4-0-5-4-0-5-4-0-5-4-0-|


  S S S S S S S S S S S S     E   S S S S  E   S S S S  
--------------------------|----------------------------|
--------------------------|----------------------------|
--------------------------|----------------------------|
--------------------------|--15--15-------15--15-------|
--4-3-0-4-3-0-3-2-0-2-1-0-|----------------------------|
--4-3-0-4-3-0-3-2-0-2-1-0-|--12--12-0-0-0-12--12-0-0-0-|


   E   S S S S  E   Q        E   S S S S  E   S S S S  
-------------------------|----------------------------|
-------------------------|----------------------------|
-------------------------|----------------------------|
--15--15-------15--14----|--15--15-------15--15-------|
-------------------------|----------------------------|
--12--12-0-0-0-12--11----|--12--12-0-0-0-12--12-0-0-0-|


   E   S S S S  S S  Q         S S S S S S S S S S S S  
--------------------------||---------------------------|
--------------------------||---------------------------|
--------------------------||*--------------------------|
--15--15-------15---16----||*--------------------------|
--------------------------||-------5-------5-0-6-0-5-0-|
--12--12-0-0-0-12-0-13----||---0-7---7-5-0-------------|


  S S S S S S S S S S S S    S S S S S S S S S S S S  
--------------------------|--------------------------|
--------------------------|--------------------------|
--------------------------|--------------------------|
--------------------------|--------------------------|
------5-----------3-----1-|------5-------5-0-6-0-5-0-|
--0-7---7-5-0-0-5---0-3---|--0-7---7-5-0-------------|


  S S S S S S S S S S  S S    S S S S S S S S S S S S  
---------------------------|--------------------------|
---------------------------|--------------------------|
---------------------------|--------------------------|
---------------------------|--------------------------|
------5-----------5-8------|------5-------5-0-6-0-5-0-|
--0-7---7-5-0-5-7-----10-8-|--0-7---7-5-0-------------|


  S S S S S S S S S S S S    S S S S S S S S S S S S    E  S S S S E  S S S S  
--------------------------|--------------------------|------------------------|
--------------------------|--------------------------|------------------------|
--------------------------|--------------------------|------------------------|
--------------------------|--------------------------|-------------3--3-------|
------5-----------3-----1-|------5-------5-0-6-0-5-0-|--8--8-------1--1-------|
--0-7---7-5-0-0-5---0-3---|--0-7---7-5-0-------------|--8--8-8-8-8-1--1-1-1-1-|


    S S S E.  S S S S S S    S S S E.  S S S S S S    S S S E.  S S S S S S  
|-------------------------|------------------------|------------------------|
|-------------------------|------------------------|------------------------|
|*------------------------|------------------------|------------------------|
|*------------------------|----------------------3-|------------------------|
|---0-0-0-----0-3-1-0-3-1-|--0-0-0-----0-3-1-0-3-3-|--0-0-0-----0-3-1-0-3-1-|
|---0-0-0-----0-3-1-0-3-1-|--0-0-0-----0-3-1-0-3---|--0-0-0-----0-3-1-0-3-1-|


  S S S E.  S S S E.        S S S E.   S S S S S S    S S S E.   S S S S S S  
-----------------------||--------------------------|-------------------------|
-----------------------||--------------------------|-------------------------|
----------------------*||*--------7\---------------|--------7\---------------|
----------------------*||*-------------------------|-----------------------3-|
--0-1-0-1---0-4-0-4----||---0-0-0-5\---0-3-1-0-3-1-|--0-0-0-5\---0-3-1-0-3-3-|
--0-1-0-1---0-4-0-4----||---0-0-0------0-3-1-0-3-1-|--0-0-0------0-3-1-0-3---|


  S S S E.   S S S S S S    S S S E.  S S S E.        E   S S S S  E   S S S S  
-------------------------|-----------------------||----------------------------|
-------------------------|-----------------------||----------------------------|
--------7\---------------|----------------------*||----------------------------|
-------------------------|----------------------*||--15--15-------15--15-------|
--0-0-0-5\---0-3-1-0-3-1-|--0-1-0-1---0-4-0-4----||----------------------------|
--0-0-0------0-3-1-0-3-1-|--0-1-0-1---0-4-0-4----||--12--12-0-0-0-12--12-0-0-0-|


   E   S S S S  E   Q        E   S S S S  E   S S S S  
-------------------------|----------------------------|
-------------------------|----------------------------|
-------------------------|----------------------------|
--15--15-------15--14----|--15--15-------15--15-------|
-------------------------|----------------------------|
--12--12-0-0-0-12--11----|--12--12-0-0-0-12--12-0-0-0-|


   E   S S S S  S S  Q       S S S S S S S S S S S S  
--------------------------|--------------------------|
--------------------------|--------------------------|
--------------------------|--------------------------|
--15--15-------15---16----|--------------------------|
--------------------------|------5-------5-0-6-0-5-0-|
--12--12-0-0-0-12-0-13----|--0-7---7-5-0-------------|


  S S S S S S S S S S S S    S S S S S S S S S S S S  
--------------------------|--------------------------|
--------------------------|--------------------------|
--------------------------|--------------------------|
--------------------------|--------------------------|
------5-----------3-----1-|------5-------5-0-6-0-5-0-|
--0-7---7-5-0-0-5---0-3---|--0-7---7-5-0-------------|


  S S S S S S S S S S S S    S S S S S S S S S S S S  
--------------------------|--------------------------|
--------------------------|--------------------------|
--------------------------|--------------------------|
--------------------------|--------------------------|
------5-----------5-------|------5-------5-0-6-0-5-0-|
--0-7---7-5-0-5-7---8-8-8-|--0-7---7-5-0-------------|


  S S S S S S S S S S S S    S S S S S S S S S S S S    S S S S S S S S S E.    
--------------------------|--------------------------|-------------------------|
--------------------------|--------------------------|-------------------------|
--------------------------|--------------------------|-------------------------|
--------------------------|--------------------------|--------------------7~---|
------5-----------3-----1-|------5-------5-0-6-0-5-0-|------5-----------5------|
--0-7---7-5-0-0-5---0-3---|--0-7---7-5-0-------------|--0-7---7-5-0-5-7--------|


  H.               Q.                                                       
----------------|---------|------|------|------|------|------|------|------|
----------------|---------|------|------|------|------|------|------|------|
----------------|--L------|------|------|------|------|------|------|------|
--4~------------|---------|------|------|------|------|------|------|------|
----------------|---------|------|------|------|------|------|------|------|
----------------|---------|------|------|------|------|------|------|------|


                                                     S S S S S S S S S S S S  
------|------|------|------|------|------|------||---------------------------|
------|------|------|------|------|------|------||---------------------------|
------|------|------|------|------|------|------||*--------------------------|
------|------|------|------|------|------|------||*--------------------------|
------|------|------|------|------|------|------||---5-4-0-5-4-0-5-4-0-5-4-0-|
------|------|------|------|------|------|------||---5-4-0-5-4-0-5-4-0-5-4-0-|


  S S S S S S S S S S S S       S S S S S S S S S S S S  
---------------------------||---------------------------|
---------------------------||---------------------------|
--------------------------*||*--------------------------|
--------------------------*||*--------------------------|
--4-3-0-4-3-0-3-2-0-2-1-0--||---------------------------|
--4-3-0-4-3-0-3-2-0-2-1-0--||---5-4-0-5-4-0-5-4-0-5-4-0-|


  S S S S S S S S S S S S      S S S  S S S  S S S  S  S  S  
---------------------------||-------------------------------|
---------------------------||-------------------------------|
--------------------------*||-------------------------------|
--------------------------*||--------10-7-------------12----|
---------------------------||------8------8--------10----10-|
--4-3-0-4-3-0-3-2-0-2-1-0--||--0-7----------10-0-9----------|


    S S S E.  S S S S S S    S S S E.  S S S S S S    S S S E.  S S S S S S  
|-------------------------|------------------------|------------------------|
|-------------------------|------------------------|------------------------|
|*------------------------|------------------------|------------------------|
|*------------------------|----------------------3-|------------------------|
|---0-0-0-----0-3-1-0-3-1-|--0-0-0-----0-3-1-0-3-3-|--0-0-0-----0-3-1-0-3-1-|
|---0-0-0-----0-3-1-0-3-1-|--0-0-0-----0-3-1-0-3---|--0-0-0-----0-3-1-0-3-1-|


  S S S E.  S S S E.        S S S E.   S S S S S S    S S S E.   S S S S S S  
-----------------------||--------------------------|-------------------------|
-----------------------||--------------------------|-------------------------|
----------------------*||*--------7\---------------|--------7\---------------|
----------------------*||*-------------------------|-----------------------3-|
--0-1-0-1---0-4-0-4----||---0-0-0-5\---0-3-1-0-3-1-|--0-0-0-5\---0-3-1-0-3-3-|
--0-1-0-1---0-4-0-4----||---0-0-0------0-3-1-0-3-1-|--0-0-0------0-3-1-0-3---|


  S S S E.   S S S S S S    S S S E.  S S S E.        S S S S S S S S S S S S  
-------------------------|-----------------------||---------------------------|
-------------------------|-----------------------||---------------------------|
--------7\---------------|----------------------*||*--------------------------|
-------------------------|----------------------*||*--------------------------|
--0-0-0-5\---0-3-1-0-3-1-|--0-1-0-1---0-4-0-4----||-------5-------5-0-6-0-5-0-|
--0-0-0------0-3-1-0-3-1-|--0-1-0-1---0-4-0-4----||---0-7---7-5-0-------------|


  S S S S S S S S S S S S    S S S S S S S S S S S S  
--------------------------|--------------------------|
--------------------------|--------------------------|
--------------------------|--------------------------|
--------------------------|--------------------------|
------5-----------3-----1-|------5-------5-0-6-0-5-0-|
--0-7---7-5-0-0-5---0-3---|--0-7---7-5-0-------------|


  S S S S S S S S S S  S S       S S S S S S S S S S S S  
----------------------------||---------------------------|
----------------------------||---------------------------|
---------------------------*||*--------------------------|
---------------------------*||*--------------------------|
------5-----------5-8-------||-------5-------5-0-6-0-5-0-|
--0-7---7-5-0-5-7-----10-8--||---0-7---7-5-0-------------|


  S S S S S S S S S S S S    S S S S S S S S S S S S  
--------------------------|--------------------------|
--------------------------|--------------------------|
--------------------------|--------------------------|
--------------------------|--------------------------|
------5-----------3-----1-|------5-------5-0-6-0-5-0-|
--0-7---7-5-0-0-5---0-3---|--0-7---7-5-0-------------|


  S S S S S S S S S S  S S      S S S S S S S S S S S S    E  S S S S Q.      
----------------------------||--------------------------|--------------------|
----------------------------||--------------------------|--------------------|
---------------------------*||--------------------------|-------------8------|
---------------------------*||--------------------------|--------------------|
------5-----------5-8-------||------5-------5-0-6-0-5-0-|--8----------6------|
--0-7---7-5-0-5-7-----10-8--||--0-7---7-5-0-------------|--8--8-8-8-8--------|


  S S S S S S S S S S S S    S S S S S S S S S S S S   
--------------------------|--------------------------||
--------------------------|--------------------------||
--------------------------|--------------------------||
--------------------------|--------------------------||
--5-4-0-5-4-0-5-4-0-5-4-0-|--4-3-0-4-3-0-3-2-0-2-1-0-||
--5-4-0-5-4-0-5-4-0-5-4-0-|--4-3-0-4-3-0-3-2-0-2-1-0-||




Duration Legend
---------------
W - whole
H - half
Q - quarter
E - 8th
S - 16th
T - 32nd
X - 64th
. - note dotted
|-n-|  - n-tuplets
comments
We did not receive enough feedback on this tab! Please rate:
print report bad tab
1 2 3 4 5
I want to post or [tab]
guest
You may want to rate the tab now too:
select rating
Please do not post tabs as comments. Select "correction" instead!