Oops, an error
Loading. Please wait.

Enemies Of Reality Tab

ver1
ver1

Whole song

Interactive

More versions @911Tabs.com
7,054 views 18 this week
no commentswrite comment
1 2 3 4 5
excellent!
x 2
Autoscroll
+/-
esc
set tempo
stop
Contributor
Difficulty
advanced
Hey! There's an official Ultimate Guitar app which is ideal
for learning songs when you're away from computer. Get the app
WARNING: You are trying to view
                                    content from Ultimate-Guitar.com
                                    in an unauthorized application,
                                    which is prohibited.

                                    Please use an official Ultimate
                                    Guitar Tabs application for iPhone,
                                    iPad or Android to access legitimate
                                    chords, guitar, bass, and drum tabs
                                    from Ultimate-Guitar.com database.

                                    Type "ultimate guitar tabs" in Apple
                                    App Store's or Android Market's
                                    search to find the application.
NEVERMORE ENEMIES OF REALITY!


Tuning : Bb Eb Ab Gb Db Bb Eb   
Time Signature: 3/4 to 6/4...

I however just did 4/4 time with triplets.  
Relative speed in this case about 180 bpm



Intro/Outro Riff.
 |       |       |       |        |       |       |       |        
|--------------------------------|--------------------------------|
|--------------------------------|--------------------------------|
|--T-------T--------T------T-----|--T-------T-------T-------T-----|
|--------------------------------|--------------------------------|
|6-6-6---9-9-9---121212----------|6-6-6-----------3-3-3-----------|
|--------------------------------|--------------------------------|
|4-4-4---7-7-7---101010--0-0-0---|4-4-4---0-0-0---1-1-1---0-0-0---|
                         P.M.-|           P.M.-|          P.M.-|

 |       |       |       |        |       |       |       |        
|--------------------------------|--------------------------------|
|--------------------------------|---T----------------------------|
|--T-------T-------T-------T-----|----------T-------T-------T-----|
|--------------------------------|9/109---------------------------|
|6-6-6---9-9-9---121212----------|----------------8/9/8-----------|
|--------------------------------|7/8/7---------------------------|
|4-4-4---7-7-7---101010--0-0-0---|--------0-0-0---6/7/6---0-0-0---|
                         P.M.-|           P.M.-|          P.M.-|

 |       |       |       |        |       |       |       |        
|--------------------------------|--------------------------------|
|--------------------------------|--------------------------------|
|--T-------T-------T-------T-----|--T-------T-------T-------T-----|
|--------------------------------|--------------------------------|
|6-6-6---9-9-9---121212----------|6-6-6-----------3-3-3-----------|
|--------------------------------|--------------------------------|
|4-4-4---7-7-7---101010--0-0-0---|4-4-4---0-0-0---1-1-1---0-0-0---|
                         P.M.-|           P.M.-|          P.M.-|

 |       |       |       |        |       |       |       |        
|--------------------------------|--------------------------------|
|--------------------------------|--------------------------------|
|--T-------T-------T-------T-----|--T-------T-------T-------T-----|
|--------------------------------|--------------------------------|
|6-6-6---9-9-9---121212----------|--------------------------3-6---|
|--------------------------------|2h5p2-----2---------2---5-------|
|4-4-4---7-7-7---101010--0-0-0---|--------4---4---1-4-------------|
                         P.M.-|           P.M.- - - - - - - - -|   


Outro extension
 |       |       |       |         
|--------------------------------|
|--------------------------------|
|--------------------------------|
|--------------------------------|
|--------------------------6-9---|
|5h8p5-----5---------5---8-------|
|--------7---7---4-7-------------|

 |       |       |       |        
|--------------------------------|
|--------------------------------|
|--------------------------------|
|--------------------------------|
|--------------------------9-12--|
|8h118-----8---------8---11------|
|--------10--10--7-10------------|



Verse Riff. (initially played without palm muting)
 |       |       |       |        |       |       |       |        
|--------------------------------|--------------------------------|
|--------------------------------|--------------------------------|
|--------------------------------|--------------------------------|
|--------------------------------|--------------------------------|
|--T-------T-------T-------T-----|--T-------T-------T-------T-----|
|--------------------------------|--------------------------------|
|0-1-0---1-0-1---0-3-0---1-0-1---|0-1-0---3-0-1---0-1-0---1-0-1---|
 P.M.- - - - - - - - - - - - - - - - - - - - - - - - - - - - - -|

 |       |       |       |        |       |       |       |        
|--------------------------------|--------------------------------|
|--------------------------------|--------------------------------|
|--------------------------------|--------------------------------|
|--------------------------------|--------------------------------|
|--T-------T-------T-------T-----|--T-------T-------T-------T-----|
|--------------------------------|--------------------------------|
|0-3-0---1-0-1---0-1-0---3-1-3---|0-1-0---1-0-1---0-3-0---1-0-1---|
 P.M.- - - - - - - - - - - - - - - - - - - - - - - - - - - - - -|

 |       |       |       |        |       |       |       |        
|--------------------------------|--------------------------------|
|--------------------------------|--------------------------------|
|--------------------------------|--------------------------------|
|--------------------------------|--------------------------------|
|--T-------T-------T-------T-----|--T-------T-------T-------T-----|
|--------------------------------|--------------------------------|
|0-1-0---3-0-1---0-1-0---1-0-1---|0-3-0---1-0-1---0-1-0---8-7-5---|
 P.M.- - - - - - - - - - - - - - - - - - - - - - - - - - - - - -|


End of Verse riff.  
 |       |       |       |        |       |       |       |        
|--------------------------------|--------------------------------|
|--------------------------------|--------------------------------|
|--------------------------------|--------------------------------|
|--------------------------------|--------------------------------|
|--T-------T-------T-------T-----|--T-------T-------T-------T-----|
|--------------------------------|--------------------------------|
|2-3-2---3-2-3---2-5-2---3-2-3---|2-3-2---5-2-3---2-3-2---3-2-3---|
 
 |       |       |       |        |       |       |       |        
|--------------------------------|--------------------------------|
|--------------------------------|--------------------------------|
|--------------------------------|--------------------------------|
|--------------------------T-----|--------------------------------|
|--T-------T-------T-------------|--T-------T-------T-------T-----|
|------------------------5-3-2---|--------------------------------|
|2-5-2---3-2-3---2-3-2-----------|1-3-1---3-1-3---1-5-1---3-1-3---|

 |       |       |       |        |       |       |       |        
|--------------------------------|--------------------------------|
|--------------------------------|--------------------------------|
|--------------------------------|--------------------------------|
|--------------------------------|--------------------------T-----|
|--T-------T-------T-------T-----|--T-------T-------T-------------|
|--------------------------------|------------------------3-2-----|
|1-3-1---5-1-3---1-3-1---3-1-3---|1-5-1---3-1-3---1-3-1-------5---|


Pre-Chorus Riff
 |       |       |       |        |       |       |       |        
|--------------------------------|--------------------------------|
|--------------------------------|--------------------------------|
|--------------------------------|--------------------------------|
|--------------------------------|--------------------------------|
|2---2---2-------2---2---2-------|2---2---2-------2---2---2-------|
|2---2---2-------2---2---2-------|2---2---2-------2---2---2-------|
|0---0---0-------0---0---0-------|0---0---0-------0---0---0-------|
 Heavy P.M. and very sticatto - - - - - - - - - - - - - - - - - -|

 |       |       |       |        |       |       |       |        
|--------------------------------|--------------------------------|
|--------------------------------|--------------------------------|
|--------------------------------|--------------------------------|
|--------------------------------|9-----------------------7-------|
|3-3-3---2-------2---2---2-------|----9---2-------6---7-----------|
|3-3-3---2-------2---2---2-------|7-----------------------5-------|
|1-1-1---0-------0---0---0-------|----7---0-------4---5-----------|
         P.M. - - - - - - -|




Chorus GTR 1. 
 |       |       |       |        |       |       |       |        
|--------------------------------|--------------------------------|
|--------------------------------|--------------------------------|
|--------------------------------|--------------------------------|
|9-------9---9---9-------9---9---|----9---7---9---10------10--10--|
|--------------------------------|--------------------------------|
|7-------7---7---7-------7---7---|----7---5---7---8-------8---8---|
|--------------------------------|--------------------------------|

 |       |       |       |        |       |       |       |        
|--------------------------------|--------------------------------|
|--------------------------------|--------------------------------|
|--------------------------------|--------------------------------|
|10--9---7-------7---7---7---9---|5-------5---4---9-------9---9---|
|--------------------------------|--------------------------------|
|8---7---5-------5---5---5---7---|3-------3---2---7-------7---7---|
|--------------------------------|--------------------------------|

 |       |       |       |        |       |       |       |        
|--------------------------------|--------------------------------|
|--------------------------------|--------------------------------|
|--------------------------------|--------------------------------|
|9-------9---9-------9---7---9---|10------10--10--10--9---10------|
|--------------------------------|--------------------------------|
|7-------7---7-------7---5---7---|8-------8---8---8---7---8-------|
|--------------------------------|--------------------------------|

 |       |       |       |           
|--------------------------------|
|--------------------------------|
|--------------------------------|
|10--10--9---10--13--------------|
|--------------------------------|
|8---8---7---8---11--------------|
|--------------------------------|


First Guitar Solo Rhythm.
 |       |       |       |        |       |       |       |        
|--------------------------------|--------------------------------|
|--------------------------------|--------------------------------|
|--------------------------------|--------------------------------|
|--------------------------------|--------------------------------|
|----------T-----2---------T-----|----------T-----5---------T-----|
|--------------------------------|--------------------------------|
|0---0---0-0-0-------0---0-0-0---|3---3---3-3-3-------3---3-3-3---|
|
|
|First Guitar Solo (Yes the solo is harmonized...probably by thirds, or 4ths)
|--------------------------------|--------------------------------|
|19b-----(21)rb---19~~~~~~~~~~~~~|171917--151415--171514----1415p-|
|--------------------------------|------------------------16------|
|--------------------------------|---T-------T-------T-------T----|
|--------------------------------|--------------------------------|
|--------------------------------|--------------------------------|
|--------------------------------|--------------------------------|

 |       |       |       |        |       |       |       |        
|--------------------------------|--------------------------------|
|--------------------------------|--------------------------------|
|--------------------------------|--------------------------------|
|--------------------------------|--------------------------------|
|----------T-----4---------------|3---------T-----3---------T-----|
|--------------------------------|--------------------------------|
|2---2---2-2-2-------2---2-2-2---|----1---1-1-1-------1---1-1-1---|
|
|
|--------------------------------|--------------------------------|
|14--------14--------------------|--------------------------------|
|--1614--16--16--141211--121412b-|----(13)rb------12~~~~~~~~~~~~~~|
|--------------------------------|--------------------------------|
|---T-------T-------T-------T----|--------------------------------|
|--------------------------------|--------------------------------|
|--------------------------------|--------------------------------|

 |       |       |       |        |       |       |       |        
|--------------------------------|--------------------------------|
|--------------------------------|--------------------------------|
|--------------------------------|--------------------------------|
|--------------------------------|--------------------------------|
|----------T-----2---------T-----|----------T-----5---------T-----|
|--------------------------------|--------------------------------|
|0---0---0-0-0-------0---0-0-0---|3---3---3-3-3-------3---3-3-3---|
|
|
|--------------------------------|----------1014/-1914--------14--|
|--------------------------------|--------12----------15----15----|
|111211------11------------------|----11-----T-------T----16------|
|------141214----141211--141211--|--12-----------------------T----|
|--------------------------------|14------------------------------|
|---------T---------T-------T----|---T----------------------------|
|--------------------------------|--------------------------------|
 
 |       |       |       |        |       |       |       |        
|--------------------------------|--------------------------------|
|--------------------------------|--------------------------------|
|--------------------------------|--------------------------------|
|--------------------------------|--------------------------------|
|----------T-----4---------T-----|3---------T-----3---------T-----|
|--------------------------------|--------------------------------|
|2---2---2-2-2-------2---2-2-2---|----1---1-1-1-------1---1-1-1---|
|
|      
|222119--2119----19--------------|--------------------------------|
|------------22----2220--192022--|201917--151719--171514--171514--|
|---T-------T--------------------|--------------------------------|
|-------------------T-------T----|---T-------T-------T-------T----|
|--------------------------------|--------------------------------|
|--------------------------------|--------------------------------|
|--------------------------------|--------------------------------|
 
 Last note held into pre chorus. 
|--------------------------------|--------------------------------|
|--------------------------------|--------------------------------|
|16~~~~~~~~~~~~~~~~~~~~~~~~~~~~~~|~~~~~~~~~~~~~~~~~~~~~~~~~~~~~~~~|
|--------------------------------|--------------------------------|
|--------------------------------|--------------------------------|
|--------------------------------|--------------------------------|
|--------------------------------|--------------------------------|



Second Guitar solo on the way along with backing rhythm.



Final Lead Bit Over Pre-Chorus
 |       |       |       |        |       |       |       |        
|191613--1613----13--------------|--------------------------------|
|------19----1916--191613191613--|1613----13----------------------|
|------------------------------19|----1916--191613191613--1613----|
|--------------------------------|----------------------19----1916|
|--------------------------------|--------------------------------|
|--------------------------------|--------------------------------|
|--------------------------------|--------------------------------|

 |       |       |       |        |       |       |       |        
|--------------------------------|--------------------------------|
|--------------------------------|--------------------------------|
|13------------------------------|--------------------------------|
|--191613191613--1613----13------|--------------------------------|
|--------------19----1916--191613|191613--1613----13--------------|
|--------------------------------|------19----1916--191613191613--|
|--------------------------------|------------------------------19|

 |       |       |       |        |       |       |       |        
|181512--1512----12--------------|--------------------------------|
|------18----1815--181512181512--|1512----12----------------------|
|------------------------------18|----1815--181512181512--1512----|
|--------------------------------|----------------------18----1815|
|--------------------------------|--------------------------------|
|--------------------------------|--------------------------------|
|--------------------------------|--------------------------------|

 |       |       |       |        |       |       |       |        
|--------------------------------|--------------------------------|
|--------------------------------|--------------------------------|
|12------------------------------|--------------------------------|
|--181512181512--1512----12------|--------------------------------|
|--------------18----1815--181512|181512--1512----12--------------|
|--------------------------------|------18----1815--181512181512--|
|--------------------------------|------------------------------18|


Harmonized by minor 3rd second time around.  
 |       |       |       |        |       |       |       |        
|191613--1613----13--------------|--------------------------------|
|------19----1916--191613191613--|1613----13----------------------|
|------------------------------19|----1916--191613191613--1613----|
|--------------------------------|----------------------19----1916|
|--------------------------------|--------------------------------|
|--------------------------------|--------------------------------|
|--------------------------------|--------------------------------|
|
|
|161310--1310----10--------------|--------------------------------|
|------16----1613--161310161310--|1310----10----------------------|
|------------------------------16|----1613--161310161310--1310----|
|--------------------------------|----------------------16----1613|
|--------------------------------|--------------------------------|
|--------------------------------|--------------------------------|
|--------------------------------|--------------------------------|


 |       |       |       |        |       |       |       |        
|--------------------------------|--------------------------------|
|--------------------------------|--------------------------------|
|13------------------------------|--------------------------------|
|--191613191613--1613----13------|--------------------------------|
|--------------19----1916--191613|191613--1613----13--------------|
|--------------------------------|------19----1916--191613191613--|
|--------------------------------|------------------------------19|
|
|      
|--------------------------------|--------------------------------|
|--------------------------------|--------------------------------|
|10------------------------------|--------------------------------|
|--161310161310--1310----10------|--------------------------------|
|--------------16----1613--161310|161310--1310----10--------------|
|--------------------------------|------16----1613--161310161310--|
|--------------------------------|------------------------------16|



 |       |       |       |        |       |       |       |        
|181512--1512----12--------------|--------------------------------|
|------18----1815--181512181512--|1512----12----------------------|
|------------------------------18|----1815--181512181512--1512----|
|--------------------------------|----------------------18----1815|
|--------------------------------|--------------------------------|
|--------------------------------|--------------------------------|
|--------------------------------|--------------------------------|
|
|
|15129---129-----9---------------|--------------------------------|
|------15----1512--15129-15129---|129-----9-----------------------|
|------------------------------15|----1512--15129-15129---129-----|
|--------------------------------|----------------------15----1512|
|--------------------------------|--------------------------------|
|--------------------------------|--------------------------------|
|--------------------------------|--------------------------------|


 |       |       |       |        |       |       |       |        
|--------------------------------|--------------------------------|
|--------------------------------|--------------------------------|
|12------------------------------|--------------------------------|
|--181512181512--1512----12------|--------------------------------|
|--------------18----1815--181512|181512--1512----12--------------|
|--------------------------------|------18----1815--181512181512--|
|--------------------------------|------------------------------18|
|
|
|--------------------------------|--------------------------------|
|--------------------------------|--------------------------------|
|9-------------------------------|--------------------------------|
|--15129-15129---129-----9-------|--------------------------------|
|--------------15----1512--15129-|15129---129-----9---------------|
|--------------------------------|------15----1512--15129-15129---|
|--------------------------------|------------------------------15|
comments
We did not receive enough feedback on this tab! Please rate:
print report bad tab
1 2 3 4 5
I want to post or [tab]
guest
You may want to rate the tab now too:
select rating
Please do not post tabs as comments. Select "correction" instead!