Oops, an error
Loading. Please wait.

Enemies Of Reality Tab

ver2
ver2

Whole song

Interactive

More versions @911Tabs.com
5,654 views 15 this week
1 commentread comment
1 2 3 4 5
excellent!
x 3
Autoscroll
+/-
esc
set tempo
stop
Contributor
Difficulty
advanced
Hey! There's an official Ultimate Guitar app which is ideal
for learning songs when you're away from computer. Get the app
WARNING: You are trying to view
                                    content from Ultimate-Guitar.com
                                    in an unauthorized application,
                                    which is prohibited.

                                    Please use an official Ultimate
                                    Guitar Tabs application for iPhone,
                                    iPad or Android to access legitimate
                                    chords, guitar, bass, and drum tabs
                                    from Ultimate-Guitar.com database.

                                    Type "ultimate guitar tabs" in Apple
                                    App Store's or Android Market's
                                    search to find the application.
Gtr I (A# D# G# C# F# A# D#) - 'Distortion I'
Gtr II (A# D# G# C# F# A# D#) - 'Distortion 2'
Gtr III (A# D# G# C# F# A# D#) - 'Lead Guitar'
Gtr IV (A# D# G# C# F# A# D#) - 'Lead 2'
Gtr V (A# D# G# C# F# A# D#) - 'Lead'


 Intro       Riff A
  Q=89        Q.=89
               (B7b9)
 7/8         6/8
  Gtrs I, II
  H..          S S S S S S S S S S S S   S S S S S S S S S S S S
|-----------|--------------------------|-------------------------|
|-----------|--------------------------|-------------------------|
|-----------|--------------------------|-------------------------|
|-----------|--------------------------|-------------------------|
|-----------|--------------------------|-------------------------|
|-----------|--------------5-5-5-------|-------------------------|
|-----------|--4-4-4-7-7-7-------0-0-0-|-4-4-4-0-0-0-1-1-1-0h1p0-|


  S S S S S S S S S S S S   S S S S S S S S S S S S
|-------------------------|-------------------------|
|-------------------------|-------------------------|
|-------------------------|-------------------------|
|-------------------------|-------------------------|
|-------------------------|-------------------------|
|-------------5-5-5-------|-7h8p7-----------5-------|
|-4-4-4-7-7-7-------0-0-0-|-------0-0-0-6-7---7-6-5-|


  S S S S S S S S S S S S   S S S S S S S S S S S S
|-------------------------|-------------------------|
|-------------------------|-------------------------|
|-------------------------|-------------------------|
|-------------------------|-------------------------|
|-------------------------|-------------------------|
|-------------5-5-5-------|-------------------------|
|-4-4-4-7-7-7-------0-0-0-|-4-4-4-0-0-0-1-1-1-0h1p0-|


                                  PM--|
  S S S S S S S S S S S S   S S S S S S S S S S S S
|-------------------------|----------------------------|
|-------------------------|----------------------------|
|-------------------------|----------------------------|
|-------------------------|----------------------------|
|-------------------------|-------------------3-6------|
|-------------5-5-5-------|---------------2-5-----5----|
|-4-4-4-7-7-7-------0-0-0-|-7p5p4-7-4-0-4--------------|


  Gtrs III, IV
  E       +S  +E.     +Q.             +H.
|-----------------------------------|---------------------------|
|-----------------------------------|---------------------------|
|-4pb5====(4)-(4)r====(4)-----------|-(4)-----------------------|
|-----------------------------------|---------------------------|
|-----------------------------------|---------------------------|
|-----------------------------------|---------------------------|
|-----------------------------------|---------------------------|
|
| Gtrs I, II
| S     S  S   S  S S  S  S S S S S    S  S S S S S S S S S S S
|-----------------------------------|---------------------------|
|-----------------------------------|---------------------------|
|-----------------------------------|---------------------------|
|-----------------------------------|---------------------------|
|-----------------------------------|---------------------------|
|----------------------5--5-5-------|---------------------------|
|-4-----4--4---7--7-7---------0-0-0-|--4--4-4-0-0-0-1-1-1-0h1p0-|


  +H.                         +H.
|---------------------------|-----------------------------|
|---------------------------|-----------------------------|
|-(4)-----------------------|-(4)-------------------------|
|---------------------------|-----------------------------|
|---------------------------|-----------------------------|
|---------------------------|-----------------------------|
|---------------------------|-----------------------------|
|
|  S  S S S S S S S S S S S    S S S S S S S S S S S S
|---------------------------|-----------------------------|
|---------------------------|-----------------------------|
|---------------------------|-----------------------------|
|---------------------------|-----------------------------|
|---------------------------|-----------------------------|
|---------------5-5-5-------|--7h8p7-----------5----------|
|--4--4-4-7-7-7-------0-0-0-|--------0-0-0-6-7---7-6-5----|


  E       +S  +E.     +Q.             +H.
|-----------------------------------|---------------------------|
|-----------------------------------|---------------------------|
|-4pb5====(4)-(4)r====(4)-----------|-(4)-----------------------|
|-----------------------------------|---------------------------|
|-----------------------------------|---------------------------|
|-----------------------------------|---------------------------|
|-----------------------------------|---------------------------|
|
| S     S  S   S  S S  S  S S S S S    S  S S S S S S S S S S S
|-----------------------------------|---------------------------|
|-----------------------------------|---------------------------|
|-----------------------------------|---------------------------|
|-----------------------------------|---------------------------|
|-----------------------------------|---------------------------|
|----------------------5--5-5-------|---------------------------|
|-4-----4--4---7--7-7---------0-0-0-|--4--4-4-0-0-0-1-1-1-0h1p0-|


  +H.                         +Q.          +E.        +E.
|---------------------------|-------------------------------------|
|---------------------------|-------------------------------------|
|-(4)-----------------------|-(4)----------(4)b5======(4)r--------|
|---------------------------|-------------------------------------|
|---------------------------|-------------------------------------|
|---------------------------|-------------------------------------|
|---------------------------|-------------------------------------|
|
|                                    PM--|
|  S  S S S S S S S S S S S    S S S S S S  S     S S  S   S S
|---------------------------|-------------------------------------|
|---------------------------|-------------------------------------|
|---------------------------|-------------------------------------|
|---------------------------|-------------------------------------|
|---------------------------|--------------------------3---6------|
|---------------5-5-5-------|-----------------------5--------5----|
|--4--4-4-7-7-7-------0-0-0-|--7p5p4-7-4-0--4-----7---------------|


 Riff B
  N.C.
  e   S E.     Q.             H.
|---------------------------|--------------------------|
|---------------------------|--------------------------|
|-4-------------------------|--------------------------|
|---------------------------|--------------------------|
|---------------------------|--------------------------|
|---------------------------|--------------------------|
|---------------------------|--------------------------|
|
| S S S S  S S S  S S S S S   S  S S S S S S S S S S S
|---------------------------|--------------------------|
|---------------------------|--------------------------|
|---------------------------|--------------------------|
|---------------------------|--------------------------|
|---------------------------|--------------------------|
|---------------------------|--------------------------|
|-0-1-0-1--0-3-0--1-0-3-1-0-|-0--1-0-1-0-3-0-1-0-3-1-3-|


    Gtrs I, II
    S S S S S S S S S S S S   S S S S S S S S S S S S
||--------------------------|-------------------------|
||--------------------------|-------------------------|
||o-------------------------|-------------------------|
||--------------------------|-------------------------|
||o-------------------------|-------------------------|
||--------------------------|-------------------------|
||--0-1-0-1-0-3-0-1-0-3-1-0-|-0-1-0-1-0-3-0-1-0-3-1-3-|


  S S S S S S S S S S S S   S S S S S S S S S S S S
|-------------------------|----------------------------||
|-------------------------|----------------------------||
|-------------------------|---------------------------o||
|-------------------------|----------------------------||
|-------------------------|---------------------------o||
|-------------------------|-------------------3-2-0----||
|-0-1-0-1-0-3-0-1-0-3-1-0-|-0-1-0-1-0-3-0-1-0----------||


   Verse 1
    PM-------------------------------------------------
    S S S S S S S S S S S S   S S S S S S S S S S S S
||--------------------------|-------------------------|
||--------------------------|-------------------------|
||o-------------------------|-------------------------|
||--------------------------|-------------------------|
||o-------------------------|-------------------------|
||--------------------------|-------------------------|
||--0-1-0-1-0-3-0-1-0-3-1-0-|-0-1-0-1-0-3-0-1-0-3-1-3-|


 -------------------------------------------------|
  S S S S S S S S S S S S   S S S S S S S S S S S S
|-------------------------|----------------------------||
|-------------------------|----------------------------||
|-------------------------|---------------------------o||
|-------------------------|----------------------------||
|-------------------------|---------------------------o||
|-------------------------|-------------------3-2-0----||
|-0-1-0-1-0-3-0-1-0-3-1-0-|-0-1-0-1-0-3-0-1-0----------||


  S S S S S S S S S S S S   S S S S S S S S S S S S
|-------------------------|-------------------------||
|-------------------------|-------------------------||
|-------------------------|-------------------------||
|-------------------------|-------------------------||
|-------------------------|-------------------------||
|-------------------------|-------------------5-4-2-||
|-2-3-2-3-2-5-2-3-2-5-3-2-|-2-3-2-3-2-5-2-3-2-------||


  S S S S S S S S S S S S   S S S S S S S S S S S S
|-------------------------|--------------------------|
|-------------------------|--------------------------|
|-------------------------|--------------------------|
|-------------------------|--------------------------|
|-------------------------|--------------------------|
|-------------------------|-------------------3-2-0--|
|-1-3-1-3-1-5-1-3-1-5-3-1-|-1-3-1-3-1-5-1-3-1--------|


 Guitar Solo 1
  (Bm)                                 (D)
  Gtr III
   \1/                 \1/
                       ~~~~
                                        |--3--|
   E      +S   +E.     Q.               S  S  S  S  S   S  S  S  S  S  S  S  S
|-10b12==(10)-(10)r---10-------------|--9h10p=9------------9-------------------|
|------------------------------------|----------12-10--12----12-10--8-12-10--8-|
|------------------------------------|-----------------------------------------|
|------------------------------------|-----------------------------------------|
|------------------------------------|-----------------------------------------|
|------------------------------------|-----------------------------------------|
|------------------------------------|-----------------------------------------|
|
| Gtr IV
|  \1/                 \1/
|                      ~~~~
|                                       |--3--|
|  E      +S   +E.     Q.               S  S  S  S  S   S  S  S  S  S  S  S  S
|-14b15==(14)-(14)r---14-------------|-12h14p12-----------12-------------------|
|------------------------------------|----------15-14--15----15-14-12-15-14-12-|
|------------------------------------|-----------------------------------------|
|------------------------------------|-----------------------------------------|
|------------------------------------|-----------------------------------------|
|------------------------------------|-----------------------------------------|
|------------------------------------|-----------------------------------------|
|
| Gtrs I, II
|  E       S   +E   S  S   S S S S S    E        S +E      S  S  S  S  S  S  S
|------------------------------------|-----------------------------------------|
|------------------------------------|-----------------------------------------|
|------------------------------------|-----------------------------------------|
|------------------------------------|-----------------------------------------|
|----------------------2-------------|-----------5-(5)--------5----------------|
|------------------------------------|-----------------------------------------|
|--0-------0---(0)--0------0-0-0-0-0-|--3------------------3-----3--3--3--3--3-|


  (A/C#)                                 (C)
                                                               ~~~
   S  S  S  S   S  S  S  S  S  S  S  S    E.         +E.       Q.
|--------------------------------------|------------------------------------|
|--7--8-10--8---7-----8--7-----------7-|------------------------------------|
|------------------9--------9--7--9----|--9b11=======(9)r------9------------|
|--------------------------------------|------------------------------------|
|--------------------------------------|------------------------------------|
|--------------------------------------|------------------------------------|
|--------------------------------------|------------------------------------|
|
|                                                              ~~~
|  S  S  S  S   S  S  S  S  S  S  S  S    E.         +E.       Q.
|--------------------------------------|------------------------------------|
|-10-12-14-12--10----12-10----------10-|------------------------------------|
|-----------------12-------12-11-12----|-12b14======(12)r-----12------------|
|--------------------------------------|------------------------------------|
|--------------------------------------|------------------------------------|
|--------------------------------------|------------------------------------|
|--------------------------------------|------------------------------------|
|
|  E     S +E      S  S  S  S  S  S  S    S     S S   S   S S  S  S S  E.
|--------------------------------------|------------------------------------|
|--------------------------------------|------------------------------------|
|--------------------------------------|------------------------------------|
|--------------------------------------|------------------------------------|
|--------4-(4)--------4----------------|--3--------------------3------------|
|--------------------------------------|------------------------------/7\---|
|--2---------------2-----2--2--2--2--2-|--------1-1---1---1-1-----1-1-------|


  (Bm)                                      (D)
   |--3--|
   S  S  S  S  S   S  S  S  S  S  S  S  S    S  S  S  S   S  S  S  S  S  S  S  S
|-----------------------------------------|-----------------14h19p14-14-------14-|
|-----------------------------------------|--------------15----------------15----|
|-11h12p11-----------11-------------------|----------16-----------------16-------|
|----------14-12--14----14-12-11-14-12-11-|-------16-----------------------------|
|-----------------------------------------|-14h17--------------------------------|
|-----------------------------------------|--------------------------------------|
|-----------------------------------------|--------------------------------------|
|
|  |--3--|
|  S  S  S  S  S   S  S  S  S  S  S  S  S    S  S  S  S   S  S  S  S  S  S  S  S
|-----------------------------------------|------------------7-12p=7-----------7-|
|-----------------------------------------|---------------7-----------8-----8----|
|-----------------------------------------|-----------9------------------9-------|
|--9h10p=9------------9-------------------|--------9-----------------------------|
|----------12-10--12----12-10--9-12-10--9-|-----9--------------------------------|
|-----------------------------------------|-10-----------------------------------|
|-----------------------------------------|--------------------------------------|
|
|  E        S +E      S  S  S  S  S  S  S    E     S +E      S  S  S  S  S  S  S
|-----------------------------------------|--------------------------------------|
|-----------------------------------------|--------------------------------------|
|-----------------------------------------|--------------------------------------|
|-----------------------------------------|--------------------------------------|
|-----------------------------------------|--------5-(5)--------5----------------|
|-----------------------------------------|--------------------------------------|
|--0--------0-(0)-----0--0--0--0--0--0--0-|--3---------------3-----3--3--3--3--5-|


  (A/C#)                                 (C)
    S  S  S  S  S  S  S  S  S  S  S  S    S  S  S  S  S  S  S  S  S  S   S  S
|-/22-21-19-21-19-17----17-19-17-------|----------------------------------------|
|--------------------20----------20-19-|-20-19-17----17-19-17-------17----------|
|--------------------------------------|----------19----------19-18-----19-18---|
|--------------------------------------|----------------------------------------|
|--------------------------------------|----------------------------------------|
|--------------------------------------|----------------------------------------|
|--------------------------------------|----------------------------------------|
|
|   S  S  S  S  S  S  S  S  S  S  S  S    S  S  S  S  S  S  S  S  S  S   S  S
|--15-14-12-14-12----------12----------|----------------------------------------|
|-----------------15-13-15----15-13-12-|-13-12----------12----------------------|
|--------------------------------------|-------14-12-14----14-12-11-14--12-11---|
|--------------------------------------|----------------------------------------|
|--------------------------------------|----------------------------------------|
|--------------------------------------|----------------------------------------|
|--------------------------------------|----------------------------------------|
|
|   E     S  S  S  S  S  S  S  S  S  S    S  S  S  S  S  S  S  S  S  E.
|--------------------------------------|----------------------------------------|
|--------------------------------------|----------------------------------------|
|--------------------------------------|----------------------------------------|
|--------------------------------------|----------------------------------------|
|------------4--------4----------------|--3-----------------3-------------------|
|--------------------------------------|----------------------------/7\---------|
|---2-----2-----2--2-----2--2--2--2--1-|-----1--1--1--1--1-----1--1-------------|


 Pre-Chorus
  B5                                C5      B5          B      A
   ~~~~~~~~~~~~~~~~~~~~
   H.              +Q     +E   Q.        H.             H.
|---------------|---------------------|---------------|--------------|
|---------------|---------------------|---------------|--------------|
|-16------------|-(16)---(16)/--------|---------------|--------------|
|---------------|---------------------|---------------|--------------|
|---------------|---------------------|---------------|--------------|
|---------------|---------------------|---------------|--------------|
|---------------|---------------------|---------------|--------------|
|
|  ~~~~~~~~~~~~~~~~~~~~
|  H.              +Q     +E   Q.        H.             H.
|---------------|---------------------|---------------|--------------|
|-15------------|-(15)---(15)/--------|---------------|--------------|
|---------------|---------------------|---------------|--------------|
|---------------|---------------------|---------------|--------------|
|---------------|---------------------|---------------|--------------|
|---------------|---------------------|---------------|--------------|
|---------------|---------------------|---------------|--------------|
|
|  PM-----------------------------------------------|
|  E  E E E E E     E  E   E   E  E E   +E  E E E E E   E  E E E E E
|---------------|---------------------|---------------|--------------|
|---------------|---------------------|---------------|--------------|
|---------------|---------------------|---------------|--------------|
|---------------|---------------------|---------------|--------------|
|---------------|---------------------|---------------|--------------|
|--2--2-2-2-2-2-|---2--2---2---2--2-3-|-(3)-2-2-2-2-2-|-7------0-5---|
|--0--0-0-0-0-0-|---0--0---0---0--0-1-|-(1)-0-0-0-0-0-|----6-0-----4-|


  B5                      C5      B5          B     A
  Gtrs I, II
  PM--------------------------------------|
  E E E E E E   E E E E E E   +E  E E E E E   E E E E E E
|-------------|-------------|---------------|-------------|
|-------------|-------------|---------------|-------------|
|-------------|-------------|---------------|-------------|
|-------------|-------------|---------------|-------------|
|-------------|-------------|---------------|-------------|
|-2-2-2-2-2-2-|-2-2-2-2-2-3-|-(3)-2-2-2-2-2-|-7-----0-5---|
|-0-0-0-0-0-0-|-0-0-0-0-0-1-|-(1)-0-0-0-0-0-|---6-0-----4-|


   Chorus
    Q=89
    B
   4/4
    Gtr III
    S   S S S S S S S S S S S S S S S
||------------------------------------|
||------------------------------------|
||o-8---8-8-8-8-8-8-8-8-8-8-8-8-8-8-8-|
||--x---x-x-x-x-x-x-x-x-x-x-x-x-x-x-x-|
||o-6---6-6-6-6-6-6-6-6-6-6-6-6-6-6-6-|
||------------------------------------|
||------------------------------------|
|
|   Gtr IV
|   S   S S S S S S S S S S S S S S S
||------------------------------------|
||------------------------------------|
||o-----------------------------------|
||--9---9-9-9-9-9-9-9-9-9-9-9-9-9-9-9-|
||o-x---x-x-x-x-x-x-x-x-x-x-x-x-x-x-x-|
||--7---7-7-7-7-7-7-7-7-7-7-7-7-7-7-7-|
||------------------------------------|
|
|   Gtrs I, II
|   H..                           S S
||------------------------------------|
||------------------------------------|
||o-----------------------------------|
||------------------------------------|
||o-2-----------------------------0-2-|
||--2---------------------------------|
||--0---------------------------------|


   S  S  S  S  S  S  S  S  S  S S S E   S  S
|--------------------------------------------|
|--------------------------------------------|
|--9--9--9--9--9--9--9--9--9--9-9-9-9---8----|
|--x--x--x--x--x--x--x--x--x--x-x-x-x-----10-|
|--7--7--7--7--7--7--7--7--7--7-7-7-7--------|
|--------------------------------------------|
|--------------------------------------------|
|
|  S  S  S  S  S  S  S  S  S  S S S S S S  S
|--------------------------------------------|
|--------------------------------------------|
|-11-11-11-11-11-11-11-11--9--9-9-9-9-9-9--9-|
|--x--x--x--x--x--x--x--x--x--x-x-x-x-x-x--x-|
|--9--9--9--9--9--9--9--9--7--7-7-7-7-7-7--7-|
|--------------------------------------------|
|--------------------------------------------|
|
|                                   ~
|  Q           S  S  E    +E    S S E   S  S
|--------------------------------------------|
|--------------------------------------------|
|--------------------------------------------|
|--------------------2----(2)----------------|
|--3-----------3--2--0----(0)----------------|
|--3----------------------------5-3-2--------|
|--1------------------------------------4--1-|


                                     1.
  B                                   A5                C5                  D#5
  S   S S S S S S S S S S S S S S S    S  S  S  S  S  S  S  S   S   S  S  S  S  S  S  S
|-----------------------------------|----------------------------------------------------||
|-----------------------------------|----------------------------------------------------||
|-8---8-8-8-8-8-8-8-8-8-8-8-8-8-8-8-|--9--9--9--9--9--9--9--9---9---9--9--9--9--9--9--9-o||
|-x---x-x-x-x-x-x-x-x-x-x-x-x-x-x-x-|--x--x--x--x--x--x--x--x---x---x--x--x--x--x--x--x--||
|-6---6-6-6-6-6-6-6-6-6-6-6-6-6-6-6-|--7--7--7--7--7--7--7--7---7---7--7--7--7--7--7--7-o||
|-----------------------------------|----------------------------------------------------||
|-----------------------------------|----------------------------------------------------||
|
| S   S S S S S S S S S S S S S S S    S  S  S  S  S  S  S  S   S   S  S  S  S  S  S  S
|-----------------------------------|----------------------------------------------------||
|-----------------------------------|----------------------------------------------------||
|-----------------------------------|-11-11-11-11-11-11-11-11--11--11-11-11-11-11-11-11-o||
|-9---9-9-9-9-9-9-9-9-9-9-9-9-9-9-9-|--x--x--x--x--x--x--x--x---x---x--x--x--x--x--x--x--||
|-x---x-x-x-x-x-x-x-x-x-x-x-x-x-x-x-|--9--9--9--9--9--9--9--9---9---9--9--9--9--9--9--9-o||
|-7---7-7-7-7-7-7-7-7-7-7-7-7-7-7-7-|----------------------------------------------------||
|-----------------------------------|----------------------------------------------------||
|
| H..                           S S    Q           S  S  E     +E      S  S  S  S  E
|-----------------------------------|----------------------------------------------------||
|-----------------------------------|----------------------------------------------------||
|-----------------------------------|---------------------------------------------------o||
|-----------------------------------|--7----------------10----(10)----------13----13-----||
|-2---------------------------------|--7-----------7----10----(10)-----9s10-13-13-13----o||
|-2-----------------------------5-7-|--5-----------5--7--8-----(8)-----7s=8-11-11-11-----||
|-0---------------------------------|----------------------------------------------------||


 2.
  A5                C5                  D#5
   S  S  S  S  S  S  S  S   S   S  S  S  S  S   E
|---------------------------------------------------|
|---------------------------------------------------|
|--9--9--9--9--9--9--9--9---9---9--9--9--9--9-------|
|--x--x--x--x--x--x--x--x---x---x--x--x--x--x-------|
|--7--7--7--7--7--7--7--7---7---7--7--7--7--7-------|
|---------------------------------------------------|
|---------------------------------------------------|
|
|  S  S  S  S  S  S  S  S   S   S  S  S  S  S   E
|---------------------------------------------------|
|---------------------------------------------------|
|-11-11-11-11-11-11-11-11--11--11-11-11-11-11-------|
|--x--x--x--x--x--x--x--x---x---x--x--x--x--x-------|
|--9--9--9--9--9--9--9--9---9---9--9--9--9--9-------|
|---------------------------------------------------|
|---------------------------------------------------|
|
|  Q           S  S  E     +E      S  S  S  S   E
|---------------------------------------------------|
|---------------------------------------------------|
|---------------------------------------------------|
|--7----------------10----(10)----------13----/13\--|
|--7-----------7----10----(10)-----9s10-13-13-------|
|--5-----------5--7--8-----(8)-----7s=8-11-11-------|
|---------------------------------------------------|


 Riff A
  Q.=89
  (B7b9)
 6/8
  Gtrs I, II
  S S S S S S S S S S S S   S S S S S S S S S S S S
|-------------------------|-------------------------|
|-------------------------|-------------------------|
|-------------------------|-------------------------|
|-------------------------|-------------------------|
|-------------------------|-------------------------|
|-------------5-5-5-------|-------------------------|
|-4-4-4-7-7-7-------0-0-0-|-4-4-4-0-0-0-1-1-1-0h1p0-|


  S S S S S S S S S S S S   S S S S S S S S S S S S
|-------------------------|--------------------------|
|-------------------------|--------------------------|
|-------------------------|--------------------------|
|-------------------------|--------------------------|
|-------------------------|--------------------------|
|-------------5-5-5-------|-7h8p7-----------5--------|
|-4-4-4-7-7-7-------0-0-0-|-------0-0-0-6-7---7-6-5--|


 6/8
  S S S S S S S S S S S S   S S S S S S S S S S S S
|-------------------------|-------------------------|
|-------------------------|-------------------------|
|-------------------------|-------------------------|
|-------------------------|-------------------------|
|-------------------------|-------------------------|
|-------------5-5-5-------|-------------------------|
|-4-4-4-7-7-7-------0-0-0-|-4-4-4-0-0-0-1-1-1-0h1p0-|


                                  PM--|
  S S S S S S S S S S S S   S S S S S S S S S S S S
|-------------------------|--------------------------|
|-------------------------|--------------------------|
|-------------------------|--------------------------|
|-------------------------|--------------------------|
|-------------------------|-------------------3-6----|
|-------------5-5-5-------|-----------------5-----5--|
|-4-4-4-7-7-7-------0-0-0-|-7p5p4-7-4-0-4-7----------|


   Verse 2
    N.C.
    PM-------------------------------------------------
    S S S S S S S S S S S S   S S S S S S S S S S S S
||--------------------------|-------------------------|
||--------------------------|-------------------------|
||o-------------------------|-------------------------|
||--------------------------|-------------------------|
||o-------------------------|-------------------------|
||--------------------------|-------------------------|
||--0-1-0-1-0-3-0-1-0-3-1-0-|-0-1-0-1-0-3-0-1-0-3-1-3-|


 -------------------------------------------------|
  S S S S S S S S S S S S   S S S S S S S S S S S S
|-------------------------|----------------------------||
|-------------------------|----------------------------||
|-------------------------|---------------------------o||
|-------------------------|----------------------------||
|-------------------------|---------------------------o||
|-------------------------|-------------------3-2-0----||
|-0-1-0-1-0-3-0-1-0-3-1-0-|-0-1-0-1-0-3-0-1-0----------||


  S S S S S S S S S S S S   S S S S S S S S S S S S
|-------------------------|-------------------------||
|-------------------------|-------------------------||
|-------------------------|-------------------------||
|-------------------------|-------------------------||
|-------------------------|-------------------------||
|-------------------------|-------------------5-4-2-||
|-2-3-2-3-2-5-2-3-2-5-3-2-|-2-3-2-3-2-5-2-3-2-------||


  S S S S S S S S S S S S   S S S S S S S S S S S S
|-------------------------|--------------------------|
|-------------------------|--------------------------|
|-------------------------|--------------------------|
|-------------------------|--------------------------|
|-------------------------|--------------------------|
|-------------------------|-------------------3-2-0--|
|-1-3-1-3-1-5-1-3-1-5-3-1-|-1-3-1-3-1-5-1-3-1--------|


   Pre-Chorus
    B5                      C5      B5          B     A
    PM--------------------------------------|
    E E E E E E   E E E E E E   +E  E E E E E   E E E E E E
||--------------|-------------|---------------|---------------||
||--------------|-------------|---------------|---------------||
||o-------------|-------------|---------------|--------------o||
||--------------|-------------|---------------|---------------||
||o-------------|-------------|---------------|--------------o||
||--2-2-2-2-2-2-|-2-2-2-2-2-3-|-(3)-2-2-2-2-2-|-7-----0-5-----||
||--0-0-0-0-0-0-|-0-0-0-0-0-1-|-(1)-0-0-0-0-0-|---6-0-----4---||


   Chorus
    Q=89
    B
   4/4
    Gtr III
    S   S S S S S S S S S S S S S S S
||------------------------------------|
||------------------------------------|
||o-8---8-8-8-8-8-8-8-8-8-8-8-8-8-8-8-|
||--x---x-x-x-x-x-x-x-x-x-x-x-x-x-x-x-|
||o-6---6-6-6-6-6-6-6-6-6-6-6-6-6-6-6-|
||------------------------------------|
||------------------------------------|
|
|   Gtr IV
|   S   S S S S S S S S S S S S S S S
||------------------------------------|
||------------------------------------|
||o-----------------------------------|
||--9---9-9-9-9-9-9-9-9-9-9-9-9-9-9-9-|
||o-x---x-x-x-x-x-x-x-x-x-x-x-x-x-x-x-|
||--7---7-7-7-7-7-7-7-7-7-7-7-7-7-7-7-|
||------------------------------------|
|
|   Gtrs I, II
|   H..                           S S
||------------------------------------|
||------------------------------------|
||o-----------------------------------|
||------------------------------------|
||o-2-----------------------------0-2-|
||--2---------------------------------|
||--0---------------------------------|


   S  S  S  S  S  S  S  S  S  S S S E   S  S
|--------------------------------------------|
|--------------------------------------------|
|--9--9--9--9--9--9--9--9--9--9-9-9-9---8----|
|--x--x--x--x--x--x--x--x--x--x-x-x-x-----10-|
|--7--7--7--7--7--7--7--7--7--7-7-7-7--------|
|--------------------------------------------|
|--------------------------------------------|
|
|  S  S  S  S  S  S  S  S  S  S S S S S S  S
|--------------------------------------------|
|--------------------------------------------|
|-11-11-11-11-11-11-11-11--9--9-9-9-9-9-9--9-|
|--x--x--x--x--x--x--x--x--x--x-x-x-x-x-x--x-|
|--9--9--9--9--9--9--9--9--7--7-7-7-7-7-7--7-|
|--------------------------------------------|
|--------------------------------------------|
|
|                                   ~
|  Q           S  S  E    +E    S S E   S  S
|--------------------------------------------|
|--------------------------------------------|
|--------------------------------------------|
|--------------------2----(2)----------------|
|--3-----------3--2--0----(0)----------------|
|--3----------------------------5-3-2--------|
|--1------------------------------------4--1-|


                                     1.
  B                                   A5                C5                  D#5
  S   S S S S S S S S S S S S S S S    S  S  S  S  S  S  S  S   S   S  S  S  S  S  S  S
|-----------------------------------|----------------------------------------------------||
|-----------------------------------|----------------------------------------------------||
|-8---8-8-8-8-8-8-8-8-8-8-8-8-8-8-8-|--9--9--9--9--9--9--9--9---9---9--9--9--9--9--9--9-o||
|-x---x-x-x-x-x-x-x-x-x-x-x-x-x-x-x-|--x--x--x--x--x--x--x--x---x---x--x--x--x--x--x--x--||
|-6---6-6-6-6-6-6-6-6-6-6-6-6-6-6-6-|--7--7--7--7--7--7--7--7---7---7--7--7--7--7--7--7-o||
|-----------------------------------|----------------------------------------------------||
|-----------------------------------|----------------------------------------------------||
|
| S   S S S S S S S S S S S S S S S    S  S  S  S  S  S  S  S   S   S  S  S  S  S  S  S
|-----------------------------------|----------------------------------------------------||
|-----------------------------------|----------------------------------------------------||
|-----------------------------------|-11-11-11-11-11-11-11-11--11--11-11-11-11-11-11-11-o||
|-9---9-9-9-9-9-9-9-9-9-9-9-9-9-9-9-|--x--x--x--x--x--x--x--x---x---x--x--x--x--x--x--x--||
|-x---x-x-x-x-x-x-x-x-x-x-x-x-x-x-x-|--9--9--9--9--9--9--9--9---9---9--9--9--9--9--9--9-o||
|-7---7-7-7-7-7-7-7-7-7-7-7-7-7-7-7-|----------------------------------------------------||
|-----------------------------------|----------------------------------------------------||
|
| H..                           S S    Q           S  S  E     +E      S  S  S  S  E
|-----------------------------------|----------------------------------------------------||
|-----------------------------------|----------------------------------------------------||
|-----------------------------------|---------------------------------------------------o||
|-----------------------------------|--7----------------10----(10)----------13----13-----||
|-2---------------------------------|--7-----------7----10----(10)-----9s10-13-13-13----o||
|-2-----------------------------5-7-|--5-----------5--7--8-----(8)-----7s=8-11-11-11-----||
|-0---------------------------------|----------------------------------------------------||


 2.
  A5                C5                  D#5
   S  S  S  S  S  S  S  S   S   S  S  S  S  S  E
|-------------------------------------------------|
|-------------------------------------------------|
|--9--9--9--9--9--9--9--9---9---9--9--9--9--9-----|
|--x--x--x--x--x--x--x--x---x---x--x--x--x--x-----|
|--7--7--7--7--7--7--7--7---7---7--7--7--7--7-----|
|-------------------------------------------------|
|-------------------------------------------------|
|
|  S  S  S  S  S  S  S  S   S   S  S  S  S  S  E
|-------------------------------------------------|
|-------------------------------------------------|
|-11-11-11-11-11-11-11-11--11--11-11-11-11-11-----|
|--x--x--x--x--x--x--x--x---x---x--x--x--x--x-----|
|--9--9--9--9--9--9--9--9---9---9--9--9--9--9-----|
|-------------------------------------------------|
|-------------------------------------------------|
|
|  Q           S  S  E     +E      S  S  S  S  E
|-------------------------------------------------|
|-------------------------------------------------|
|-------------------------------------------------|
|--7----------------10----(10)----------13----13--|
|--7-----------7----10----(10)-----9s10-13-13-13--|
|--5-----------5--7--8-----(8)-----7s=8-11-11-11--|
|-------------------------------------------------|


 Guitar Solo 2
  (C#m)
  Gtr V
         |--3--|  |-------------10---------------|  |--------------10---------------|  |-------------10---------------|
   S  S  S  S  S  S  S  S    S  S  S  S  S    S  S  S   S  S    S  S  S  S  S    S  S  S  S  S    S  S  S  S  S    S  S
|-------------------------------------------------------------------------------------------------------------------------|
|-------------------------------------------------------------------------------------------------------------------------|
|--------------------------------------------------------------------------------------------------------------------13---|
|--------------------------------------------------------------------------11--------------------11-13-14-13-14---16------|
|--------------------------------------------11-------------------11-12h14------14-12-11-12-14----------------------------|
|----------11-12-14-11-12---14-12-11-12-14------14-12--11-12---14---------------------------------------------------------|
|-14-12-14----------------------------------------------------------------------------------------------------------------|
|
| Gtrs I, II
|  PM---|                                           ~~~      PM-------------------------------------------------|
|  S  S  e        S       S        S       S       +S        S        S       S        S       S        S       S
|-------------------------------------------------------------------------------------------------------------------------|
|-------------------------------------------------------------------------------------------------------------------------|
|-------------------------------------------------------------------------------------------------------------------------|
|-------------------------------------------------------------------------------------------------------------------------|
|-------------------------4-----------------------------------------------------------------------------------------------|
|----------------------------------4--------------------------------------------------------------------------------------|
|--2--0--2--------x------------------------2-------(2)-------0--------2-------3--------5-------3--------2-------0---------|


  (D)
                                         ~~~~                                              ~~~~~~~~~~~~~
   |---------------11----------------|   |--------------10---------------|  |--3---|
   S  S  S    S  S  S    S  S  S  S  S  +S   S  S    S  S  S  S  S    S  S  T   T  T      +E.      +Q
|---------------------------------------------------16-------16-17------16-17--19-19b21==(19)-----(19)r--------|
|--------------------------14-16-17-16-(16)-17-19------17-19---------19----------------------------------------|
|---------------13-14---17-------------------------------------------------------------------------------------|
|-16-13-14---16------------------------------------------------------------------------------------------------|
|--------------------------------------------------------------------------------------------------------------|
|--------------------------------------------------------------------------------------------------------------|
|--------------------------------------------------------------------------------------------------------------|
|
|  PM-----------------|                                            ~~~~~~~~~~~~            PM---------------|
|  S       S          e                  S        S        S       S       +S              S  S S   S   S S S
|--------------------------------------------------------------------------------------------------------------|
|--------------------------------------------------------------------------------------------------------------|
|--------------------------------------------------------------------------------------------------------------|
|--------------------------------------------------------------------------------------------------------------|
|-------------------------------------------------4------------------------------------------------------------|
|----------------------------------------------------------4---------------------------------------------------|
|--3-------2----------3------------------x-------------------------3-------(3)-------------0--2-3---5---3-2-0--|


  (C#m)
                  |-----3------|
   E        +E   +E      E     E     s   s  s   s    s    s   T  T  t  t
|------------------------------------------------------------------------|
|-16b17====(16)-(16)---[16]---16---[16]-16-16-[16]-[16]-[16]-16-16-16-16-|
|------------------------------------------------------------------------|
|------------------------------------------------------------------------|
|------------------------------------------------------------------------|
|------------------------------------------------------------------------|
|------------------------------------------------------------------------|
|
|  PM------|                         ~~~~PM------------------------|
|  S     S   e    S  S      S    S  +S   S  S   S    S    S   S     S
|------------------------------------------------------------------------|
|------------------------------------------------------------------------|
|------------------------------------------------------------------------|
|------------------------------------------------------------------------|
|--------------------4---------------------------------------------------|
|---------------------------4--------------------------------------------|
|--2-----0---2----x--------------2--(2)--0--2---3----5----3---2-----0----|


  (D)
                                                                          ~~~
    |----------------7:8-----------------|
    s      s      s    s      s     s    s     S   T  T  T  S    T  T  T  E.
|---------------------------------------------------------------------------------|
|-[16]---[16]---[16]-[16]r==[16]---16---16---[14]h15p14----14h==15p14----14-------|
|-------------------------------------------------------16------------16----------|
|---------------------------------------------------------------------------------|
|---------------------------------------------------------------------------------|
|---------------------------------------------------------------------------------|
|---------------------------------------------------------------------------------|
|
|             ~                            ~~~~~~~~                 PM---------|
|                                                                   |----3-----|
|   S  S      e           S      S    S    S  +S   S     S    S     e        e e
|---------------------------------------------------------------------------------|
|---------------------------------------------------------------------------------|
|---------------------------------------------------------------------------------|
|---------------------------------------------------------------------------------|
|--------------------------------4------------------------------------------------|
|-------------------------------------4-------------------------------------------|
|---3--2------3-----------x----------------3--(3)--0-----2----3-----5--------3-0--|


  (C#m)
       ~~~
                                                               |-----------9:8------------|
    T  E.     T  T   T  T  T  T  T  T  T  T  T  T T  T T  T  T T  T  T   T  T    T T   T  T
|-----13p====12p10-----10--------------------------------------------------------------7h10--|
|-/12--------------h14----12-------12p11p10p=9h10p9----9-----------------9h12------9---------|
|----------------------------13p10------------------12---10---------10----------10-----------|
|-----------------------------------------------------------12p9h12--------------------------|
|--------------------------------------------------------------------------------------------|
|--------------------------------------------------------------------------------------------|
|--------------------------------------------------------------------------------------------|
|
|          ~                              ~~~
|   S    S E     S      S     S     S    +S     S    S    S    S       S      S      S
|--------------------------------------------------------------------------------------------|
|--------------------------------------------------------------------------------------------|
|--------------------------------------------------------------------------------------------|
|--------------------------------------------------------------------------------------------|
|-----------------------4--------------------------------------------------------------------|
|-----------------------------4--------------------------------------------------------------|
|---2----0-2-----0------------------2----(2)----0----2----3----5-------3------2------0-------|


  (D)
                                                                                               ~~~~~~~~~
                                 |------5------|  |-------5-------|  |------5------|  |--3--|
    S.   T  T  T  T  T  +X   T.  T  T  T    T  T  T  T  T      T  T  T  T  T    T  T  T  T  T  E    +T   T  T  T
|-/16p==13------------------------------------------------------------------------------13h16s19---(19)----16h19-|
|----------15-------15-(15)-14--13-12-13p==12----12--------------------12h15---------15-----------------18-------|
|-------------16p13---------------------------15----13--------------13---------13h16-----------------------------|
|------------------------------------------------------15p====12h15----------------------------------------------|
|----------------------------------------------------------------------------------------------------------------|
|----------------------------------------------------------------------------------------------------------------|
|----------------------------------------------------------------------------------------------------------------|
|
|           ~~                                    ~~~~~~~~~~~~
|   S S     E            S       S       S        S       +S         S       S        S        S S   S      S
|----------------------------------------------------------------------------------------------------------------|
|----------------------------------------------------------------------------------------------------------------|
|----------------------------------------------------------------------------------------------------------------|
|----------------------------------------------------------------------------------------------------------------|
|--------------------------------4-------------------------------------------------------------------------------|
|----------------------------------------4-----------------------------------------------------------------------|
|---3-2-----3------------0------------------------3-------(3)--------0-------2--------3--------5-3---2------0----|


  (C#m)
   T          T     T                   T     T
   |---------------11----------------|  |----------------11------------------|  |----------------11------------------|              |------6-------|
   S  S  S    S  S  S    S  S  S  S  S  S  S  S    S  S  S     S  S  S    S  S  S   S  S    S  S  S    S  S  S    S  S  T  T  T  T  T  T  T  T  T  T
|-22p16h19---22p19-22p==16h19p16s13h16-22p16-22p==13h16p13-------13------------------------------------------------------------------------------------|
|------------------------------------------------------------h15----15---------15--14-13---12-13-14---15-14-13---12----12----------------12h15---------|
|------------------------------------------------------------------------16p13--------------------------------------15----13----------13-------13h16---|
|----------------------------------------------------------------------------------------------------------------------------15p12h15------------------|
|------------------------------------------------------------------------------------------------------------------------------------------------------|
|------------------------------------------------------------------------------------------------------------------------------------------------------|
|------------------------------------------------------------------------------------------------------------------------------------------------------|
|
|                     ~                                                         ~~~
|  S       S          E                 S       S          S           S       +S        S          S          S        S     S     S        S
|------------------------------------------------------------------------------------------------------------------------------------------------------|
|------------------------------------------------------------------------------------------------------------------------------------------------------|
|------------------------------------------------------------------------------------------------------------------------------------------------------|
|------------------------------------------------------------------------------------------------------------------------------------------------------|
|-----------------------------------------------4------------------------------------------------------------------------------------------------------|
|----------------------------------------------------------4-------------------------------------------------------------------------------------------|
|--2-------0----------2-----------------0------------------------------2-------(2)-------0----------2----------3--------5-----3-----2--------0---------|


  (D)
                                                                                                        ~~~~~
   |------------------13-------------------|
   S  S  S  S    S  S  S    S  S  S  S  S  S  T   T  T  S        +T    T      +T   +S   +S   S  S      +Q
|----13-----------------------16h19p16-------16-/19-22-22b24====(22)r-22b24==(22)-(22)r(22)-19-21b22==(21)r------|
|-15----15-----------------18----------18------------------------------------------------------------------------|
|----------16p==13s16h19------------------19---------------------------------------------------------------------|
|----------------------------------------------------------------------------------------------------------------|
|----------------------------------------------------------------------------------------------------------------|
|----------------------------------------------------------------------------------------------------------------|
|----------------------------------------------------------------------------------------------------------------|
|
|                        ~                                             ~~~~~~~~~~~~~~~~~                PM----|
|                                                                                                       |--3--|
|  S          S          E                    S      S        S        S           +S    S   S  S       e   e e
|----------------------------------------------------------------------------------------------------------------|
|----------------------------------------------------------------------------------------------------------------|
|----------------------------------------------------------------------------------------------------------------|
|----------------------------------------------------------------------------------------------------------------|
|----------------------------------------------------4-----------------------------------------------------------|
|-------------------------------------------------------------4--------------------------------------------------|
|--3----------2----------3--------------------0------------------------3-----------(3)---0---2--3-------5---3-0--|


   Breakdown
    C#5 B5C5    D#5D5 F5    E5       G5  G#5 G5      F#5   F5
    Gtrs III, IV
      ~~~~~~~~~~~~~~~~~~~~~~~~~~~~~~~
      W                          +W                            4x
||----------------------------|--------------------------------||
||----------------------------|--------------------------------||
||o-/12-----------------------|-(12)--------------------------o||
||----------------------------|--------------------------------||
||o-/10-----------------------|-(10)--------------------------o||
||----------------------------|--------------------------------||
||----------------------------|--------------------------------||
|
|     S S E +S  E. E. S +E  E    +S   E.  E.  S  +E  E +S  E.  4x
||----------------------------|--------------------------------||
||----------------------------|--------------------------------||
||o---------------------------|-------------------------------o||
||----------------------------|--------------------------------||
||o---------------------------|-------------------------------o||
||----4-2-3-(3)-6--5--8-(8)-7-|--(7)-10--11--10-(10)-9-(9)-8---||
||----2-0-1-(1)-4--3--6-(6)-5-|--(5)--8---9---8--(8)-7-(7)-6---||


 Guitar Solo 3
  Q.=89
  B5
 6/8
  Gtrs I, II
   E       E          E        E       E          E
   |       |          |        |       |          |
   /       /          /        /       /          /

  Gtr III
   |----------8:6-----------|  |----------8:6-----------|
   S  S  S    S  S  S    S  S  S  S  S    S  S  S    S  S
|-19-16-13------16-13---------13--------------------------|
|------------19---------19-16----19-16---13-19-16---13----|
|------------------------------------------------------19-|
|---------------------------------------------------------|
|---------------------------------------------------------|
|---------------------------------------------------------|
|---------------------------------------------------------|


                                                  C5
   E       E          E        E       E          E
   |       |          |        |       |          |
   /       /          /        /       /          /

   |----------8:6-----------|  |----------8:6-----------|
   S  S  S    S  S  S    S  S  S  S  S    S  S  S    S  S
|----------------------------------------------------------|
|-16-13---------13-----------------------------------------|
|-------19---16----19---16-13-19-16-13------16-13----------|
|----------------------------------------19---------19-16--|
|----------------------------------------------------------|
|----------------------------------------------------------|
|----------------------------------------------------------|


           B5
  +E       E          E        E       E          E
   |       |          |        |       |          |
   /       /          /        /       /          /

   |----------8:6-----------|  |----------8:6-----------|
   S  S  S    S  S  S    S  S  S  S  S    S  S  S    S  S
|---------------------------------------------------------|
|---------------------------------------------------------|
|-13------------------------------------------------------|
|----19-16---13-19-16---13----16-13---------13------------|
|--------------------------19-------19---16----19---16-13-|
|---------------------------------------------------------|
|---------------------------------------------------------|


                                                  C5
   E       E          E        E       E          E
   |       |          |        |       |          |
   /       /          /        /       /          /

   |----------8:6-----------|  |----------8:6----------|
   S  S  S    S  S  S    S  S  S  S  S    S  S  S    S S
|--------------------------------------------------------|
|--------------------------------------------------------|
|--------------------------------------------------------|
|--------------------------------------------------------|
|-19-16-13------16-13---------13-------------------------|
|------------19---------19-16----19-16---13-19-16---13---|
|--------------------------------------------------------|


           B5
  +E       E          E        E       E          E
   |       |          |        |       |          |
   /       /          /        /       /          /

   |----------8:6-----------|  |----------8:6-----------|
   S  S  S    S  S  S    S  S  S  S  S    S  S  S    S  S
|-18-15-12------15-12---------12--------------------------|
|------------18---------18-15----18-15---12-18-15---12----|
|------------------------------------------------------18-|
|---------------------------------------------------------|
|---------------------------------------------------------|
|---------------------------------------------------------|
|---------------------------------------------------------|


                                                  C5
   E       E          E        E       E          E
   |       |          |        |       |          |
   /       /          /        /       /          /

   |----------8:6-----------|  |----------8:6-----------|
   S  S  S    S  S  S    S  S  S  S  S    S  S  S    S  S
|---------------------------------------------------------|
|-15-12---------12----------------------------------------|
|-------18---15----18---15-12-18-15-12------15-12---------|
|----------------------------------------18---------18-15-|
|---------------------------------------------------------|
|---------------------------------------------------------|
|---------------------------------------------------------|


           B5
  +E       E          E        E       E          E
   |       |          |        |       |          |
   /       /          /        /       /          /

   |----------8:6-----------|  |----------8:6-----------|
   S  S  S    S  S  S    S  S  S  S  S    S  S  S    S  S
|---------------------------------------------------------|
|---------------------------------------------------------|
|-12------------------------------------------------------|
|----18-15---12-18-15---12----15-12---------12------------|
|--------------------------18-------18---15----18---15-12-|
|---------------------------------------------------------|
|---------------------------------------------------------|


                                                  C5
   E       E          E        E       E          E
   |       |          |        |       |          |
   /       /          /        /       /          /

   |----------8:6-----------|  |----------8:6----------|
   S  S  S    S  S  S    S  S  S  S  S    S  S  S    S S
|--------------------------------------------------------|
|--------------------------------------------------------|
|--------------------------------------------------------|
|--------------------------------------------------------|
|-18-15-12------15-12---------12-------------------------|
|------------18---------18-15----18-15---12-18-15---12---|
|--------------------------------------------------------|


           B5
  +E       E          E        E       E          E
   |       |          |        |       |          |
   /       /          /        /       /          /

  Gtr III
   |----------8:6-----------|  |----------8:6-----------|
   S  S  S    S  S  S    S  S  S  S  S    S  S  S    S  S
|-19-16-13------16-13---------13--------------------------|
|------------19---------19-16----19-16---13-19-16---13----|
|------------------------------------------------------19-|
|---------------------------------------------------------|
|---------------------------------------------------------|
|---------------------------------------------------------|
|---------------------------------------------------------|
|
| Gtr IV
|  |----------8:6-----------|  |----------8:6-----------|
|  S  S  S    S  S  S    S  S  S  S  S    S  S  S    S  S
|-22-19-16------19-16---------16--------------------------|
|------------22---------22-19----22-19---16-22-19---16----|
|------------------------------------------------------22-|
|---------------------------------------------------------|
|---------------------------------------------------------|
|---------------------------------------------------------|
|---------------------------------------------------------|


                                                  C5
   E       E          E        E       E          E
   |       |          |        |       |          |
   /       /          /        /       /          /

   |----------8:6-----------|  |----------8:6-----------|
   S  S  S    S  S  S    S  S  S  S  S    S  S  S    S  S
|---------------------------------------------------------|
|-16-13---------13----------------------------------------|
|-------19---16----19---16-13-19-16-13------16-13---------|
|----------------------------------------19---------19-16-|
|---------------------------------------------------------|
|---------------------------------------------------------|
|---------------------------------------------------------|
|
|  |----------8:6-----------|  |----------8:6-----------|
|  S  S  S    S  S  S    S  S  S  S  S    S  S  S    S  S
|---------------------------------------------------------|
|-19-16---------16----------------------------------------|
|-------22---19----22---19-16-22-19-16------19-16---------|
|----------------------------------------22---------22-19-|
|---------------------------------------------------------|
|---------------------------------------------------------|
|---------------------------------------------------------|


           B5
  +E       E          E        E       E          E
   |       |          |        |       |          |
   /       /          /        /       /          /

   |----------8:6-----------|  |----------8:6-----------|
   S  S  S    S  S  S    S  S  S  S  S    S  S  S    S  S
|---------------------------------------------------------|
|---------------------------------------------------------|
|-13------------------------------------------------------|
|----19-16---13-19-16---13----16-13---------13------------|
|--------------------------19-------19---16----19---16-13-|
|---------------------------------------------------------|
|---------------------------------------------------------|
|
|  |----------8:6-----------|  |----------8:6-----------|
|  S  S  S    S  S  S    S  S  S  S  S    S  S  S    S  S
|---------------------------------------------------------|
|---------------------------------------------------------|
|-16------------------------------------------------------|
|----22-19---16-22-19---16----19-16---------16------------|
|--------------------------22-------22---19----22---19-16-|
|---------------------------------------------------------|
|---------------------------------------------------------|


                                                  C5
   E       E          E        E       E          E
   |       |          |        |       |          |
   /       /          /        /       /          /

   |----------8:6-----------|  |----------8:6----------|
   S  S  S    S  S  S    S  S  S  S  S    S  S  S    S S
|--------------------------------------------------------|
|--------------------------------------------------------|
|--------------------------------------------------------|
|--------------------------------------------------------|
|-19-16-13------16-13---------13-------------------------|
|------------19---------19-16----19-16---13-19-16---13---|
|--------------------------------------------------------|
|
|  |----------8:6-----------|  |----------8:6----------|
|  S  S  S    S  S  S    S  S  S  S  S    S  S  S    S S
|--------------------------------------------------------|
|--------------------------------------------------------|
|--------------------------------------------------------|
|--------------------------------------------------------|
|-22-19-16------19-16---------16-------------------------|
|------------22---------22-19----22-19---16-22-19---16---|
|--------------------------------------------------------|


           B5
  +E       E          E        E       E          E
   |       |          |        |       |          |
   /       /          /        /       /          /

   |----------8:6-----------|  |----------8:6-----------|
   S  S  S    S  S  S    S  S  S  S  S    S  S  S    S  S
|-18-15-12------15-12---------12--------------------------|
|------------18---------18-15----18-15---12-18-15---12----|
|------------------------------------------------------18-|
|---------------------------------------------------------|
|---------------------------------------------------------|
|---------------------------------------------------------|
|---------------------------------------------------------|
|
|  |----------8:6-----------|  |----------8:6-----------|
|  S  S  S    S  S  S    S  S  S  S  S    S  S  S    S  S
|-21-18-15------18-15---------15--------------------------|
|------------21---------21-18----21-18---15-21-18---15----|
|------------------------------------------------------21-|
|---------------------------------------------------------|
|---------------------------------------------------------|
|---------------------------------------------------------|
|---------------------------------------------------------|


                                                  C5
   E       E          E        E       E          E
   |       |          |        |       |          |
   /       /          /        /       /          /

   |----------8:6-----------|  |----------8:6-----------|
   S  S  S    S  S  S    S  S  S  S  S    S  S  S    S  S
|---------------------------------------------------------|
|-15-12---------12----------------------------------------|
|-------18---15----18---15-12-18-15-12------15-12---------|
|----------------------------------------18---------18-15-|
|---------------------------------------------------------|
|---------------------------------------------------------|
|---------------------------------------------------------|
|
|  |----------8:6-----------|  |----------8:6-----------|
|  S  S  S    S  S  S    S  S  S  S  S    S  S  S    S  S
|---------------------------------------------------------|
|-18-15---------15----------------------------------------|
|-------21---18----21---18-15-21-18-15------18-15---------|
|----------------------------------------21---------21-18-|
|---------------------------------------------------------|
|---------------------------------------------------------|
|---------------------------------------------------------|


           B5
  +E       E          E        E       E          E
   |       |          |        |       |          |
   /       /          /        /       /          /

   |----------8:6-----------|  |----------8:6-----------|
   S  S  S    S  S  S    S  S  S  S  S    S  S  S    S  S
|---------------------------------------------------------|
|---------------------------------------------------------|
|-12------------------------------------------------------|
|----18-15---12-18-15---12----15-12---------12------------|
|--------------------------18-------18---15----18---15-12-|
|---------------------------------------------------------|
|---------------------------------------------------------|
|
|  |----------8:6-----------|  |----------8:6-----------|
|  S  S  S    S  S  S    S  S  S  S  S    S  S  S    S  S
|---------------------------------------------------------|
|---------------------------------------------------------|
|-15------------------------------------------------------|
|----21-18---15-21-18---15----18-15---------15------------|
|--------------------------21-------21---18----21---18-15-|
|---------------------------------------------------------|
|---------------------------------------------------------|


   E       E          E        E       E          E
   |       |          |        |       |          |
   o       o          o        o       o          o

   |----------8:6-----------|  |----------8:6----------|
   S  S  S    S  S  S    S  S  S  S  S    S  S  S    S S
|--------------------------------------------------------|
|--------------------------------------------------------|
|--------------------------------------------------------|
|--------------------------------------------------------|
|-18-15-12------15-12---------12-------------------------|
|------------18---------18-15----18-15---12-18-15---12---|
|--------------------------------------------------------|
|
|  |----------8:6-----------|  |----------8:6----------|
|  S  S  S    S  S  S    S  S  S  S  S    S  S  S    S S
|--------------------------------------------------------|
|--------------------------------------------------------|
|--------------------------------------------------------|
|--------------------------------------------------------|
|-21-18-15------18-15---------15-------------------------|
|------------21---------21-18----21-18---15-21-18---15---|
|--------------------------------------------------------|


                                   Q=89
  N.C.                             B                 C  B
 9/8                              4/4
                                   Gtrs I, II
   Q   +E         +Q.    +q    E   S S S S E S S +S   S E S S S  S
|--------------------------------|----------------------------------|
|-15--(15)b16.5==(15)---(15)r----|----------------------------------|
|--------------------------------|----------------------------------|
|--------------------------------|-9-9-9-9-9-9-9-(9)-10-9-9-9-7--9--|
|--------------------------------|-x-x-x-x-x-x-x-(x)--x-x-x-x-x-(x)-|
|--------------------------------|-7-7-7-7-7-7-7-(7)--8-7-7-7-7-(7)-|
|--------------------------------|---------0------------------------|
|
|  Q   +E         +Q.    +q    E   W
|--------------------------------|----------------------------------|
|--------------------------------|----------------------------------|
|--------------------------------|----------------------------------|
|--8---(8)b9.5====(8)----(8)r----|----------------------------------|
|--------------------------------|----------------------------------|
|--------------------------------|----------------------------------|
|--------------------------------|----------------------------------|


  C5                                  D#5
                                    |-3-|
   S  S   S  S  S S S S  S   S  S S E E E
|------------------------------------------|
|------------------------------------------|
|--0--0---0--0------0-4--4---4-------------|
|-10-10--10-10-10-9-7-7--7---7--7-5--------|
|--x--x-------------x-x--x---x--x-x-4------|
|--8-(8)------------5-5-(5)-(5)-5-3-2-6-3--|
|-------------------------------------4-1--|
|
|  W
|------------------------------------------|
|------------------------------------------|
|------------------------------------------|
|------------------------------------------|
|------------------------------------------|
|------------------------------------------|
|------------------------------------------|


   Chorus
    B
    Gtr III
    S   S S S S S S S S S S S S S S S
||------------------------------------|
||------------------------------------|
||o-8---8-8-8-8-8-8-8-8-8-8-8-8-8-8-8-|
||--x---x-x-x-x-x-x-x-x-x-x-x-x-x-x-x-|
||o-6---6-6-6-6-6-6-6-6-6-6-6-6-6-6-6-|
||------------------------------------|
||------------------------------------|
|
|   Gtr IV
|   S   S S S S S S S S S S S S S S S
||------------------------------------|
||------------------------------------|
||o-----------------------------------|
||--9---9-9-9-9-9-9-9-9-9-9-9-9-9-9-9-|
||o-x---x-x-x-x-x-x-x-x-x-x-x-x-x-x-x-|
||--7---7-7-7-7-7-7-7-7-7-7-7-7-7-7-7-|
||------------------------------------|
|
|   Gtrs I, II
|   H..                           S S
||------------------------------------|
||------------------------------------|
||o-----------------------------------|
||------------------------------------|
||o-2-----------------------------0-2-|
||--2---------------------------------|
||--0---------------------------------|


   S  S  S  S  S  S  S  S  S  S S S E   S  S
|---------------------------------------------|
|---------------------------------------------|
|--9--9--9--9--9--9--9--9--9--9-9-9-9---8-----|
|--x--x--x--x--x--x--x--x--x--x-x-x-x-----10--|
|--7--7--7--7--7--7--7--7--7--7-7-7-7---------|
|---------------------------------------------|
|---------------------------------------------|
|
|  S  S  S  S  S  S  S  S  S  S S S S S S  S
|---------------------------------------------|
|---------------------------------------------|
|-11-11-11-11-11-11-11-11--9--9-9-9-9-9-9--9--|
|--x--x--x--x--x--x--x--x--x--x-x-x-x-x-x--x--|
|--9--9--9--9--9--9--9--9--7--7-7-7-7-7-7--7--|
|---------------------------------------------|
|---------------------------------------------|
|
|                                   ~
|  Q           S  S  E    +E    S S E   S  S
|---------------------------------------------|
|---------------------------------------------|
|---------------------------------------------|
|--------------------2----(2)-----------------|
|--3-----------3--2--0----(0)-----------------|
|--3----------------------------5-3-2---------|
|--1------------------------------------4--1--|


                                     1.
  B                                   A5                C5                  D#5
  S   S S S S S S S S S S S S S S S    S  S  S  S  S  S  S  S   S   S  S  S  S  S  S  S
|-----------------------------------|----------------------------------------------------||
|-----------------------------------|----------------------------------------------------||
|-8---8-8-8-8-8-8-8-8-8-8-8-8-8-8-8-|--9--9--9--9--9--9--9--9---9---9--9--9--9--9--9--9-o||
|-x---x-x-x-x-x-x-x-x-x-x-x-x-x-x-x-|--x--x--x--x--x--x--x--x---x---x--x--x--x--x--x--x--||
|-6---6-6-6-6-6-6-6-6-6-6-6-6-6-6-6-|--7--7--7--7--7--7--7--7---7---7--7--7--7--7--7--7-o||
|-----------------------------------|----------------------------------------------------||
|-----------------------------------|----------------------------------------------------||
|
| S   S S S S S S S S S S S S S S S    S  S  S  S  S  S  S  S   S   S  S  S  S  S  S  S
|-----------------------------------|----------------------------------------------------||
|-----------------------------------|----------------------------------------------------||
|-----------------------------------|-11-11-11-11-11-11-11-11--11--11-11-11-11-11-11-11-o||
|-9---9-9-9-9-9-9-9-9-9-9-9-9-9-9-9-|--x--x--x--x--x--x--x--x---x---x--x--x--x--x--x--x--||
|-x---x-x-x-x-x-x-x-x-x-x-x-x-x-x-x-|--9--9--9--9--9--9--9--9---9---9--9--9--9--9--9--9-o||
|-7---7-7-7-7-7-7-7-7-7-7-7-7-7-7-7-|----------------------------------------------------||
|-----------------------------------|----------------------------------------------------||
|
| H..                           S S    Q           S  S  E     +E      S  S  S  S  E
|-----------------------------------|----------------------------------------------------||
|-----------------------------------|----------------------------------------------------||
|-----------------------------------|---------------------------------------------------o||
|-----------------------------------|--7----------------10----(10)----------13----13-----||
|-2---------------------------------|--7-----------7----10----(10)-----9s10-13-13-13----o||
|-2-----------------------------5-7-|--5-----------5--7--8-----(8)-----7s=8-11-11-11-----||
|-0---------------------------------|----------------------------------------------------||


 2.
  A5                C5                  D#5
   S  S  S  S  S  S  S  S   S   S  S  S  S  S   E
|---------------------------------------------------|
|---------------------------------------------------|
|--9--9--9--9--9--9--9--9---9---9--9--9--9--9-------|
|--x--x--x--x--x--x--x--x---x---x--x--x--x--x-------|
|--7--7--7--7--7--7--7--7---7---7--7--7--7--7-------|
|---------------------------------------------------|
|---------------------------------------------------|
|
|  S  S  S  S  S  S  S  S   S   S  S  S  S  S   E
|---------------------------------------------------|
|---------------------------------------------------|
|-11-11-11-11-11-11-11-11--11--11-11-11-11-11-------|
|--x--x--x--x--x--x--x--x---x---x--x--x--x--x-------|
|--9--9--9--9--9--9--9--9---9---9--9--9--9--9-------|
|---------------------------------------------------|
|---------------------------------------------------|
|
|  Q           S  S  E     +E      S  S  S  S   E
|---------------------------------------------------|
|---------------------------------------------------|
|---------------------------------------------------|
|--7----------------10----(10)----------13----/13\--|
|--7-----------7----10----(10)-----9s10-13-13-------|
|--5-----------5--7--8-----(8)-----7s=8-11-11-------|
|---------------------------------------------------|


  B
  Gtr III
  S   S S S E   S S +S   S E   S S S  S
|----------------------------------------|
|----------------------------------------|
|----------------------------------------|
|-9---9-9-9-9---9-9-(9)-10-9---9-9-7--9--|
|-x---x-x-x-x---x-x-(x)--x-x---x-x-x-(x)-|
|-7---7-7-7-7---7-7-(7)--8-7---7-7-7-(7)-|
|-----------0----------------------------|
|
| Gtr IV
| S   S S S S S S S  S   S S S S S S  S
|----------------------------------------|
|----------------------------------------|
|-8---8-8-8-8-8-8-8--8---8-8-8-8-8-8--8--|
|-x---x-x-x-x-x-x-x--x---x-x-x-x-x-x--x--|
|-6---6-6-6-6-6-6-6--6---6-6-6-6-6-6--6--|
|----------------------------------------|
|----------------------------------------|
|
| Gtrs I, II
| H..                              S  S
|----------------------------------------|
|----------------------------------------|
|----------------------------------------|
|----------------------------------------|
|-9--------------------------------7--9--|
|-7--------------------------------5--7--|
|----------------------------------------|


  C5                A5              F#D#C5
   S  S   S  S  S S S S  S   S  S S E S  S
|-------------------------------------------|
|-------------------------------------------|
|--0--0---0--0------0-4--4---4--------------|
|-10-10--10-10-10-9-7-7--7---7--7-5---------|
|--x--x-------------x-x--x---x--x-x-4-------|
|--8-(8)------------5-5-(5)-(5)-5-3-2-6--3--|
|-------------------------------------4--1--|
|
|  S  S   S  S  S S S S  S   S  S S E S  S
|-------------------------------------------|
|-------------------------------------------|
|--9--9---9--9--9-9-9-9--9---9--9-9-9-8-----|
|--x--x---x--x--x-x-x-x--x---x--x-x-x---10--|
|--7--7---7--7--7-7-7-7--7---7--7-7-7-------|
|-------------------------------------------|
|-------------------------------------------|
|
|  Q            S S E   +E      S S E S  S
|-------------------------------------------|
|-------------------------------------------|
|-------------------------------------------|
|-------------------------------------------|
|-10-----------10-9-7---(7)-----7-5-4-------|
|--8------------8-7-5---(5)-----5-3-2-6--3--|
|-------------------------------------4--1--|


  B
  Q           E   E       +E    E       +Q
|-------------------------------------------------|
|-------------------------------------------------|
|-------------------------------------------------|
|-4-----------4---5-------(5)---4-------(4)-------|
|-6-----------6---7-------(7)---6-------(6)-------|
|-------------------------------------------------|
|-------------------------------------------------|
|
| S S S   S   S S S   S    S  S S   S    S  S S S
|-------------------------------------------------|
|-------------------------------------------------|
|-8-8-8---8---8-8-8---8----8--8-8---8----8--8-8-8-|
|-x-x-x---x---x-x-x---x----x--x-x---x----x--x-x-x-|
|-6-6-6---6---6-6-6---6----6--6-6---6----6--6-6-6-|
|-------------------------------------------------|
|-------------------------------------------------|
|
|     |--3--|     |--3--|       |--3--|
| E   S S   S E   S S   S  E    S S   S  S  S S S
|-------------------------------------------------|
|-------------------------------------------------|
|-------------------------------------------------|
|-------------------------------------------------|
|-2-----------9------------9-------------9--9-7-9-|
|-2-----------7------------7-------------7--7-5-7-|
|-0---0-0---0-----0-0---0-------0-0---0-----------|


                               D#5
  S S S S S S  S S   S  S S  S  S  S   E
|-------------------------------------------|
|-0-0-0-0-0-0--0-0---0--0-0--0--------------|
|-2-2-2-2-2-2--2-2---2--2-2--2--8------8----|
|-2-2-2-2-2-2--2-2---2--2-2--2--8--8---8----|
|-------------------------------6--6---6----|
|-------------------------------------------|
|-------------------------------------------|
|
| S S S S S S  S S   S  S S  S  S  S   S  S
|-------------------------------------------|
|-------------------------------------------|
|-9-9-9-9-9-9--9-9---9--9-9--9--9--9---9----|
|-x-x-x-x-x-x--x-x---x--x-x--x--x--x---x----|
|-7-7-7-7-7-7--7-7---7--7-7--7--7--7---7----|
|-------------------------------------------|
|-------------------------------------------|
|
| Q       S S  E    +E    S  S  S  S   E
|-------------------------------------------|
|-------------------------------------------|
|-------------------------------------------|
|-7-----------10---(10)--------13----/13\---|
|-7-------7---10---(10)---9s10-13-13--------|
|-5-------5-7--8----(8)---7s=8-11-11--------|
|-------------------------------------------|


 Outro
  Q.=89
  (B7b9)
 6/8
  Gtrs III, IV
                                       TP
  E       +S  +E.     +Q.             +H.
|-----------------------------------|---------------------------|
|-----------------------------------|---------------------------|
|-4pb5====(4)-(4)r====(4)-----------|-(4)-----------------------|
|-----------------------------------|---------------------------|
|-----------------------------------|---------------------------|
|-----------------------------------|---------------------------|
|-----------------------------------|---------------------------|
|
| Gtrs I, II
| S     S  S   S  S S  S  S S S S S    S  S S S S S S S S S S S
|-----------------------------------|---------------------------|
|-----------------------------------|---------------------------|
|-----------------------------------|---------------------------|
|-----------------------------------|---------------------------|
|-----------------------------------|---------------------------|
|----------------------5--5-5-------|---------------------------|
|-4-----4--4---7--7-7---------0-0-0-|--4--4-4-0-0-0-1-1-1-0h1p0-|


   TP                          TP
  +H.                         +H.
|---------------------------|---------------------------|
|---------------------------|---------------------------|
|-(4)-----------------------|-(4)-----------------------|
|---------------------------|---------------------------|
|---------------------------|---------------------------|
|---------------------------|---------------------------|
|---------------------------|---------------------------|
|
|  S  S S S S S S S S S S S    S S S S S S S S S S S S
|---------------------------|---------------------------|
|---------------------------|---------------------------|
|---------------------------|---------------------------|
|---------------------------|---------------------------|
|---------------------------|---------------------------|
|---------------5-5-5-------|--7h8p7-----------5--------|
|--4--4-4-7-7-7-------0-0-0-|--------0-0-0-6-7---7-6-5--|


                                       TP
  E       +S  +E.     +Q.             +H.
|-----------------------------------|---------------------------|
|-----------------------------------|---------------------------|
|-4pb5====(4)-(4)r====(4)-----------|-(4)-----------------------|
|-----------------------------------|---------------------------|
|-----------------------------------|---------------------------|
|-----------------------------------|---------------------------|
|-----------------------------------|---------------------------|
|
| S     S  S   S  S S  S  S S S S S    S  S S S S S S S S S S S
|-----------------------------------|---------------------------|
|-----------------------------------|---------------------------|
|-----------------------------------|---------------------------|
|-----------------------------------|---------------------------|
|-----------------------------------|---------------------------|
|----------------------5--5-5-------|---------------------------|
|-4-----4--4---7--7-7---------0-0-0-|--4--4-4-0-0-0-1-1-1-0h1p0-|


                             >
   TP
  +H.                       +Q.            Q.
|-------------------------|-----------------------------|
|-------------------------|-----------------------------|
|-(4)---------------------|-(4)-------------------------|
|-------------------------|-----------------------------|
|-------------------------|-----------------------------|
|-------------------------|-----------------------------|
|-------------------------|-----------------------------|
|
|                            |-3-|
|  S  S S S S S S S S  E.    S S S S S S S S  S S S S S
|-------------------------|-----------------------------|
|-------------------------|-----------------------------|
|-------------------------|-----------------------------|
|-------------------------|-----------------------------|
|---------------------/6\-|-----------------------3-6---|
|---------------5-5-5-----|--2h5p2---2--------2-5-----5-|
|--4--4-4-7-7-7-----------|--------4---4-1-4------------|


  Gtrs I, II
  |-3-|                       |-3--|
  S S S S S S S S S S S S S   S  S S  S S  S S  S S  S S  S  S
|---------------------------|----------------------------------|
|---------------------------|----------------------------------|
|---------------------------|----------------------------------|
|---------------------------|----------------------------------|
|---------------------6-9---|--------------------------9-12----|
|-5h8p5---5-------5-8-----8-|-8h11p8----8---------8-11------11-|
|-------7---7-4-7-----------|--------10---10-7-10--------------|


                               B5
  S  S S  S S  S S S S S S S   Q.   +Q.
|----------------------------|-------------*|
|----------------------------|-------------*|
|----------------------------|-------------*|
|-7-10---10---10---9---9---9-|-9----(9)\---*|
|------9----7----6---7-------|-9----(9)\---*|
|------------------------8---|-7----(7)\---*|
|----------------------------|-------------*|




--------------------------------------------------------------------------------


Duration Legend
---------------
W - whole; H - half; Q - quarter; E - 8th; S - 16th; T - 32nd; X - 64th; a - acciaccatura
+ - note tied to previous; . - note dotted; .. - note double dotted
Uncapitalized letters represent notes that are staccato (1/2 duration)
Irregular groupings are notated above the duration line
Duration letters will always appear directly above the note/fret number it represents the
duration for.  Duration letters with no fret number below them represent rests.  Multi-
bar rests are notated in the form Wxn, where n is the number of bars to rest for.  Low
melody durations appear below the staff

Tablature Legend
----------------
 h   - hammer-on
 p   - pull-off
 b   - bend
 pb  - pre-bend
 r   - bend release (if no number after the r, then release immediately)
 /\  - slide into or out of (from/to "nowhere")
 s   - legato slide
 S   - shift slide
<n> - natural harmonic
[n]  - artificial harmonic
n(n) - tapped harmonic
 ~   - vibrato
 tr  - trill
 T   - tap
 TP  - trem. picking
 PM  - palm muting
\n/  - tremolo bar dip; n = amount to dip
 \n  - tremolo bar down
 n/  - tremolo bar up
/n\  - tremolo bar inverted dip
 =   - hold bend; also acts as connecting device for hammers/pulls
 <> - volume swell (louder/softer)
 x   - on rhythm slash represents muted slash
 o   - on rhythm slash represents single note slash

Misc Legend
-----------
 |  - bar
||  - double bar
||o - repeat start
o|| - repeat end
*|  - double bar (ending)
 :  - bar (freetime)
 $  - Segno
 &  - Coda
Tempo markers - <E/E./Q/Q./H/H.> = BPM(8/16=s8/s16), where s8 = swing 8ths, s16 = swing 16ths


comments
We did not receive enough feedback on this tab! Please rate:
print report bad tab
1 2 3 4 5
1 comment total.
0 reply
Metalheadhobo1 wrote on April 6 2013, 11:37 am

nice, thanks

I want to post or [tab]
guest
You may want to rate the tab now too:
select rating
Please do not post tabs as comments. Select "correction" instead!