Oops, an error
Loading. Please wait.

Engines Of Hate Tab

2,655 views 1 this week
no commentswrite comment
1 2 3 4 5
excellent!
x 1
Autoscroll
+/-
esc
set tempo
stop
Contributor
Tuning
D# G# C# F# A# D#
WARNING: You are trying to view
                                    content from Ultimate-Guitar.com
                                    in an unauthorized application,
                                    which is prohibited.

                                    Please use an official Ultimate
                                    Guitar Tabs application for iPhone,
                                    iPad or Android to access legitimate
                                    chords, guitar, bass, and drum tabs
                                    from Ultimate-Guitar.com database.

                                    Type "ultimate guitar tabs" in Apple
                                    App Store's or Android Market's
                                    search to find the application.
#----------------------------------PLEASE NOTE---------------------------------#
#This file is the author's own work and represents their interpretation of the #
#song. You may only use this file for private study, scholarship, or research. #
#------------------------------------------------------------------------------#

ENGINES OF HATE
As recorded by Nevermore
(From the 2000 Album DEAD HEART IN A DEAD WORLD)

Transcribed by Alberto Almeida
	


Arranged by Nevemore

F#5/C#
2 2 4 4 x x x
	
A5/E
5 5 7 7 x x x
	
F5/C
1 1 3 3 x x x

Gtr I (Bb Eb Ab Db Gb Bb Eb) - 'Rythm L'
Gtr II (Bb Eb Ab Db Gb Bb Eb) - 'Rythm R'
Gtr III (Bb Eb Ab Db Gb Bb Eb) - 'Lead'

   Intro
    Q=135
    E5              A5/E            Em              Fmaj7   N.C.
   4/4
    Gtrs I, II
    PM-|            PM-|            PM-|            PM----|
    E. E. Q.   Q    E. E. Q.   Q    E. E. Q.   Q    E. E. E S E S Q
||----------------|---------------|---------------|--------------------||
||----------------|---------------|---------------|--------------------||
||o---------------|---------------|---------------|-------------------o||
||--9--9--9----9--|-7--7--7----7--|-5--5--5----5--|-3--3--3------------||
||o-7--7--7----7--|-7--7--7----7--|-7--7--7----7--|-7--7--7-5-7-5-8---o||
||--0--0--0----0--|-0--0--0----0--|-0--0--0----0--|-0--0--0-x-x-x-x----||
||----------------|---------------|---------------|---------3-5-3-6----||


    C#°D° C#5  C#°      D° C° N.C.    C#°D° C#5  C#°        D° C° N.C.
   4/4
    PM-|             PM-|             PM-|               PM-|
    E. E. Q.   e e   E. E. Q  E E E   E. E. Q.   S S e   E. E. Q  E E E
||-----------------|----------------|------------------|-----------------||
||-----------------|----------------|------------------|-----------------||
||o----------------|----------------|------------------|----------------o||
||-----------------|--------------3-|------------------|-----------------||
||o-4--5--4--------|-4--5--3--2-4---|-4--5--4----------|-4--5--3--2-4---o||
||--3--4--4----3-3-|-3--4--2--------|-3--4--4----3-3-3-|-3--4--2------3--||
||--2--3--2----2-2-|-2--3--1--------|-2--3--2----2-2-2-|-2--3--1---------||


 Pre-Verse
  E5
 4/4
  Gtr III
                                |-3--|   |-3--|   |-3--|
  W           S   S S S S S S S S S  S S S S  S S S S  S
|----------|--7h=12-0-0-0-0-0-0-0-7h12-0-0-7h12-0-0-7h12-|
|----------|---------------------------------------------|
|----------|---------------------------------------------|
|----------|---------------------------------------------|
|----------|---------------------------------------------|
|----------|---------------------------------------------|
|----------|---------------------------------------------|
|
| Gtrs I, II
| W          +W
|----------|---------------------------------------------|
|----------|---------------------------------------------|
|----------|---------------------------------------------|
|-2--------|-(2)-----------------------------------------|
|-2--------|-(2)-----------------------------------------|
|-0--------|-(0)-----------------------------------------|
|----------|---------------------------------------------|


   |--3--|             |-3--|   |-3--|   |-3--|
   S  S  S S S S S S S S S  S S S S  S S S S  S
|--0--8h13-0-0-0-0-0-0-0-8h13-0-0-8h13-0-0-8h13----|
|--------------------------------------------------|
|--------------------------------------------------|
|--------------------------------------------------|
|--------------------------------------------------|
|--------------------------------------------------|
|--------------------------------------------------|
|
| +W
|--------------------------------------------------|
|--------------------------------------------------|
|--------------------------------------------------|
|-(2)----------------------------------------------|
|-(2)----------------------------------------------|
|-(0)----------------------------------------------|
|--------------------------------------------------|


 4/4
   |--3--|             |-3--|   |-3--|   |-3--|
   S  S  S S S S S S S S S  S S S S  S S S S  S
|--0--6h11-0-0-0-0-0-0-0-6h11-0-0-6h11-0-0-6h11-|
|-----------------------------------------------|
|-----------------------------------------------|
|-----------------------------------------------|
|-----------------------------------------------|
|-----------------------------------------------|
|-----------------------------------------------|
|
| +W
|-----------------------------------------------|
|-----------------------------------------------|
|-----------------------------------------------|
|-(2)-------------------------------------------|
|-(2)-------------------------------------------|
|-(0)-------------------------------------------|
|-----------------------------------------------|


   |--3--|             |-3--|   |-3--|   |-3--|
   S  S  S S S S S S S S S  S S S S  S S S S  S
|--0--7h12-0-0-0-0-0-0-0-7h12-0-0-7h12-0-0-7h12---|
|-------------------------------------------------|
|-------------------------------------------------|
|-------------------------------------------------|
|-------------------------------------------------|
|-------------------------------------------------|
|-------------------------------------------------|
|
| +W
|-------------------------------------------------|
|-------------------------------------------------|
|-------------------------------------------------|
|-(2)---------------------------------------------|
|-(2)---------------------------------------------|
|-(0)---------------------------------------------|
|-------------------------------------------------|


    N.C.
    Gtrs I, II
         PM--------|                           PM--------|
    S  S S S S S S S S  S S S  S S S  S   S  S S S S S S S S  S S S  S S S  S
||--------------------------------------|--------------------------------------|
||--------------------------------------|--------------------------------------|
||o-------------------------------------|--------------------------------------|
||--------------------------------------|--------------------------------------|
||o-------------------------------------|--------------------------------------|
||--7h12-0-0-0-0-0-0-7h12-0-7h12-0-7h12-|-8h13-0-0-0-0-0-0-8h13-0-8h13-0-8h13--|
||--------------------------------------|--------------------------------------|


       PM--------|                           PM--------|
  S  S S S S S S S S  S S S  S S S  S   S  S S S S S S S S  S S S  S S S  S
|-------------------------------------|--------------------------------------||
|-------------------------------------|--------------------------------------||
|-------------------------------------|-------------------------------------o||
|-------------------------------------|--------------------------------------||
|-------------------------------------|-------------------------------------o||
|-6h11-0-0-0-0-0-0-6h11-0-6h11-0-6h11-|-7h12-0-0-0-0-0-0-7h12-0-7h12-0-7h12--||
|-------------------------------------|--------------------------------------||


   Verse
        PM|   PM------|   PM|
    S S S S S S S S S S E S S E
||------------------------------|
||------------------------------|
||o-----------------------------|
||------------------------------|
||o---------4-------------------|
||------------------------------|
||--0h2-2-2---2-2-2-2-2-1-2-2-1-|


      PM|   PM------|   PM|           PM|   PM------|   PM|
  S S S S S S S S S S E S S E     S S S S S S S S S S E S S E
|------------------------------||-------------------------------|
|------------------------------||-------------------------------|
|-----------------------------o||-------------------------------|
|------------------------------||-------------------------------|
|---------4-----------5-----5-o||---------4---------------------|
|------------------------------||-------------------------------|
|-0h2-2-2---2-2-2-2-2---2-2----||-0h2-2-2---2-2-2-2-2-1-2-2-1---|


      PM|   PM------|   PM|
  S S S S S S S S S S E S S E
|-----------------------------|
|-----------------------------|
|-----------------------------|
|-----------------------------|
|---------4-------------------|
|-----------------------------|
|-0h2-2-2---2-2-2-2-2-3-2-2-6-|


      PM|   PM------|   PM|         PM|   PM------|   PM|
  S S S S S S S S S S E S S E   S S S S S S S S S S E S S E
|-----------------------------|-----------------------------|
|-----------------------------|-----------------------------|
|-----------------------------|-----------------------------|
|-----------------------------|-----------------------------|
|---------4-------------------|---------4-------------------|
|-----------------------------|-----------------------------|
|-0h2-2-2---2-2-2-2-2-1-2-2-1-|-0h2-2-2---2-2-2-2-2-3-2-2-3-|


    S S S S S S S S S S S S S S S S   S S S S S S S S S S E S S E
||----------------------------------|-----------------------------|
||----------------------------------|-----------------------------|
||o---------------------------------|-----------------------------|
||----------------------------------|-----------------------------|
||o---------------------------------|-----------------------------|
||----------------------------------|-----------------------------|
||--0-2-2-2-2-2-2-2-2-2-1-1-1-1-1-1-|-0-2-2-2-2-2-2-2-2-2-3-3-3-6-|


                                                        PM--|
  S S S S S S S S S S S S S S S S   S S S S S S S S S S E S S E
|---------------------------------|-------------------------------||
|---------------------------------|-------------------------------||
|---------------------------------|------------------------------o||
|---------------------------------|-------------------------------||
|---------------------------------|------------------------------o||
|---------------------------------|-------------------------------||
|-0-2-2-2-2-2-2-2-2-2-1-1-1-1-1-1-|-0-2-2-2-2-2-2-2-2-2-3-2-2-3---||


   Chorus
               PM|   PM----|
     E S  E. E S S E S S S S
||---------------------------|
||---------------------------|
||o--------------------------|
||---------------------------|
||o--------------------------|
||---------------------------|
||--10-0-10\-0-0-0-0-0-0-0-0-|


                           1.
           PM|   PM----|              PM|   PM----|
  E S E. E S S E S S S S   S S S E. E S S E S S S S
|------------------------|--------------------------|
|------------------------|--------------------------|
|------------------------|--------------------------|
|------------------------|--------------------------|
|------------------------|--------------------------|
|------------------------|--------------------------|
|-8-0-8\-0-0-0-0-0-0-0-0-|-6-6-6-6\-0-0-0-0-0-0-0-0-|


  S S S S S S S S S S S S S S S S
|----------------------------------||
|----------------------------------||
|---------------------------------o||
|----------------------------------||
|---------------------------------o||
|----------------------------------||
|-5p0-0-6p0-0-3p0-0-5p0-0-2p0-3p0--||


  2.
             PM|   PM----|
  S S S E. E S S E S S S S   S S S S S S S S S S S S S S S S
|--------------------------|----------------------------------||
|--------------------------|----------------------------------||
|--------------------------|----------------------------------||
|--------------------------|----------------------------------||
|--------------------------|----------------------------------||
|--------------------------|----------------------------------||
|-6-6-6-6\-0-0-0-0-0-0-0-0-|-5p0-0-6p0-0-3p0-0-5p0-0-2p0-3p0--||


   Pre-Verse
         PM--------|                           PM--------|
    S  S S S S S S S S  S S S  S S S  S   S  S S S S S S S S  S S S  S S S  S
||--------------------------------------|--------------------------------------|
||--------------------------------------|--------------------------------------|
||o-------------------------------------|--------------------------------------|
||--------------------------------------|--------------------------------------|
||o-------------------------------------|--------------------------------------|
||--7h12-0-0-0-0-0-0-7h12-0-7h12-0-7h12-|-8h13-0-0-0-0-0-0-8h13-0-8h13-0-8h13--|
||--------------------------------------|--------------------------------------|


       PM--------|                           PM--------|
  S  S S S S S S S S  S S S  S S S  S   S  S S S S S S S S  S S S  S S S  S
|-------------------------------------|--------------------------------------||
|-------------------------------------|--------------------------------------||
|-------------------------------------|-------------------------------------o||
|-------------------------------------|--------------------------------------||
|-------------------------------------|-------------------------------------o||
|-6h11-0-0-0-0-0-0-6h11-0-6h11-0-6h11-|-7h12-0-0-0-0-0-0-7h12-0-7h12-0-7h12--||
|-------------------------------------|--------------------------------------||


 Verse
      PM|   PM------|   PM|
  S S S S S S S S S S E S S E
|-----------------------------|
|-----------------------------|
|-----------------------------|
|-----------------------------|
|---------4-------------------|
|-----------------------------|
|-0h2-2-2---2-2-2-2-2-1-2-2-1-|


      PM|   PM------|   PM|         PM|   PM------|   PM|
  S S S S S S S S S S E S S E   S S S S S S S S S S E S S E
|-----------------------------|-----------------------------|
|-----------------------------|-----------------------------|
|-----------------------------|-----------------------------|
|-----------------------------|-----------------------------|
|---------4-----------5-----5-|---------4-------------------|
|-----------------------------|-----------------------------|
|-0h2-2-2---2-2-2-2-2---2-2---|-0h2-2-2---2-2-2-2-2-1-2-2-1-|


      PM|   PM--------|            PM|   PM------|   PM|
  S S S S S S S S S S E Q      S S S S S S S S S S E S S E
|--------------------------||------------------------------|
|--------------------------||------------------------------|
|--------------------------||o-----------------------------|
|--------------------------||------------------------------|
|---------4-----------5----||o---------4-------------------|
|--------------------------||------------------------------|
|-0h2-2-2---2-2-2-2-2------||--0h2-2-2---2-2-2-2-2-1-2-2-1-|


  1.
      PM|   PM------|   PM|
  S S S S S S S S S S E S S E
|-------------------------------||
|-------------------------------||
|------------------------------o||
|-------------------------------||
|---------4--------------------o||
|-------------------------------||
|-0h2-2-2---2-2-2-2-2-3-2-2-6---||


  2.
      PM|   PM------|   PM|
  S S S S S S S S S S E S S E     S S S S S S S S S S S S S S S S
|-----------------------------||----------------------------------|
|-----------------------------||----------------------------------|
|-----------------------------||o---------------------------------|
|-----------------------------||----------------------------------|
|---------4-------------------||o---------------------------------|
|-----------------------------||----------------------------------|
|-0h2-2-2---2-2-2-2-2-3-2-2-3-||--0-2-2-2-2-2-2-2-2-2-1-1-1-1-1-1-|


  S S S S S S S S S S E S S E
|------------------------------|
|------------------------------|
|------------------------------|
|------------------------------|
|------------------------------|
|------------------------------|
|-0-2-2-2-2-2-2-2-2-2-3-3-3-6--|


                                                          PM|
  S S S S S S S S S S S S S S S S   S S S S S S S S S S E S S E
|---------------------------------|-------------------------------||
|---------------------------------|-------------------------------||
|---------------------------------|------------------------------o||
|---------------------------------|-------------------------------||
|---------------------------------|------------------------------o||
|---------------------------------|-------------------------------||
|-0-2-2-2-2-2-2-2-2-2-1-1-1-1-1-1-|-0-2-2-2-2-2-2-2-2-2-3-2-2-3---||


   Chorus
               PM|   PM----|
     E S  E. E S S E S S S S
||---------------------------|
||---------------------------|
||o--------------------------|
||---------------------------|
||o--------------------------|
||---------------------------|
||--10-0-10\-0-0-0-0-0-0-0-0-|


                           1.
           PM|   PM----|              PM|   PM----|
  E S E. E S S E S S S S   S S S E. E S S E S S S S
|------------------------|--------------------------|
|------------------------|--------------------------|
|------------------------|--------------------------|
|------------------------|--------------------------|
|------------------------|--------------------------|
|------------------------|--------------------------|
|-8-0-8\-0-0-0-0-0-0-0-0-|-6-6-6-6\-0-0-0-0-0-0-0-0-|


  S S S S S S S S S S S S S S S S
|----------------------------------||
|----------------------------------||
|---------------------------------o||
|----------------------------------||
|---------------------------------o||
|----------------------------------||
|-5p0-0-6p0-0-3p0-0-5p0-0-2p0-3p0--||


  2.
             PM|   PM----|
  S S S E. E S S E S S S S   S S S S S S S S S S S S S S S S
|--------------------------|----------------------------------||
|--------------------------|----------------------------------||
|--------------------------|----------------------------------||
|--------------------------|----------------------------------||
|--------------------------|----------------------------------||
|--------------------------|----------------------------------||
|-6-6-6-6\-0-0-0-0-0-0-0-0-|-5p0-0-6p0-0-3p0-0-5p0-0-2p0-3p0--||


 Guitar Solo
  F#5/C#
 4/4
  Gtrs I, II
  W
  |
  /

  Gtr III
  S  S  S S  S  S  S  S  S  S  S  S  S  S  S  S
|-----------------------------------------------|
|-----------------------------------------14-15-|
|-----------------11h14-11----------11h14-------|
|---------9h11h12----------12-11-12-------------|
|-9h11h12---------------------------------------|
|-----------------------------------------------|
|-----------------------------------------------|


                          A5/E
  +H                       H
   |                       |
   /                       /

   S  S  S  S  S  S  S  S  S  S  S  S  S  S  S  S
|-14h17s21s17-14h17-------------------------------|
|-------------------14----14----------------------|
|----------------------18----18-14-18-14----14----|
|----------------------------------------18----18-|
|-------------------------------------------------|
|-------------------------------------------------|
|-------------------------------------------------|


  F5/C
   W
   |
   /

   ~~                      T
         |--3--|  |--3--|  |--3--|  |--3--|
   H     S  S  S  S  S  S  S  S  S  S  S  S
|-------------------------------------------|
|-------------------15h18h21p18p15----------|
|-------------13h16----------------16-14-13-|
|-15----12h15-------------------------------|
|-------------------------------------------|
|-------------------------------------------|
|-------------------------------------------|


  +W
   |
   /

                                                      T  T
   |--3--|  |--3--|  |--3--|  |--3--|  |--3--|
   S  S  S  S  S  S  S  S  S  S  S  S  S  S  S  T  T  T  T  T  T  T  T  E
|----------------------------------------------13h16h19h22p19p16p13----------|
|-15-14-13-12----12-------------12h15----12h15----------------------12-------|
|-------------15----13-------13-------13-------------------------------13\---|
|----------------------15-12-------------------------------------------------|
|----------------------------------------------------------------------------|
|----------------------------------------------------------------------------|
|----------------------------------------------------------------------------|


  F#5/C#
   W
   |
   /

   |--3--|  |--3--|                                               |--3--|
   S  S  S  S  S  S  T  S  T  T  T  T  T  S. T  T  T  T  T  S  S  S  S  S
|----------------------------------------------------------14----14-------|
|-------------------------15----------------------------14----15----15-14-|
|-------------------14-18----18-14-------------------14-------------------|
|----------------16----------------16-------------16----------------------|
|-------------16----------------------16-------16-------------------------|
|-14h16h17-14----------------------------14h17----------------------------|
|-------------------------------------------------------------------------|


                                       A5/E
   +H                                   H
    |                                   |
    /                                   /

                         T     T
    |--3--|  |--3--|  |--3--|  |--3--|  |--3--|  |--3--|  |--3--|  |--3--|
    S  S  S  S  S  S  S  S  S  S  S  S  S  S  S  S  S  S  S  S  S  S  S  S
|-/21p17----------17h21h22p21h22p21p19h21p17----17----------------16s13----|
|--------19----19----------------------------19----19-15----15-18-------14-|
|-----------18-------------------------------------------16----------------|
|--------------------------------------------------------------------------|
|--------------------------------------------------------------------------|
|--------------------------------------------------------------------------|
|--------------------------------------------------------------------------|


  F5/C
    W
    |
    /

                                                                  ~~~
                  |--3--|  |--3--|  |--3--|  |--3--|  |-3--| |-3--|
   +T   T  E  S   S  S  S  S  S  S  S  S  S  S  S  S  S  S S S S  S
|-------------------------------------------------------------------|
|-(14)-12--------------14-17p15s14h15p14s12-14-12-10-12-10-9--------|
|---------13--------14---------------------------------------7h9h21-|
|------------12\-16-------------------------------------------------|
|-------------x\----------------------------------------------------|
|-------------------------------------------------------------------|
|-------------------------------------------------------------------|


   +Q.              E      E       E E E
    |               |      |       | | |
    /               o      o       o o o

 ~~~~~~~        ~~~~~~~~        ~~~
                       |--3--|
   +E  T T T T  E  +S  S S   S  Q.        S
|----------------------------------------19--|
|--------------------------------------------|
|-(21)p9p7p0---------------------------------|
|------------7h21-(21)p7p0-------------------|
|----------------------------7h21------------|
|--------------------------------------------|
|--------------------------------------------|


  F#5/C#
   W
   |
   /

   S  S  S  S  S  S  S  S  S  S  S  S  S  S  S  S
|-19-22----22----22----21----21----21----19----19-|
|-------21----19----18----19----18----15----18----|
|-------------------------------------------------|
|-------------------------------------------------|
|-------------------------------------------------|
|-------------------------------------------------|
|-------------------------------------------------|


                          A5/E
  +H                       H
   |                       |
   /                       /

   S  S  S  S  S  S  S  S  S  S  S  S  S  S  S  S
|----19----17----17----17----16----16----16----14--|
|-15----14----15----14----12----14----12----10-----|
|--------------------------------------------------|
|--------------------------------------------------|
|--------------------------------------------------|
|--------------------------------------------------|
|--------------------------------------------------|


  F5/C
  W                       +W
  |                        |
  /                        /

  ~~
       |--3--|
  Q.   S  S  S E.  E. E    E.  E  S  S S  E.  E. E
|--------------9--10--9-|-12--10-12p10p9-----------|
|-9----9-10-12----------|----------------12--10--9-|
|-----------------------|--------------------------|
|-----------------------|--------------------------|
|-----------------------|--------------------------|
|-----------------------|--------------------------|
|-----------------------|--------------------------|


  F#5/C#
  W
  |
  /

                     ~~
  Q      +S  +E.     Q   +S   T  T  T  T  T  T
|----------------------------------------------|
|-9b10===(9)r(9)b10r==================14h15h18-|
|-------------------11--(11)-13h14h16----------|
|----------------------------------------------|
|----------------------------------------------|
|----------------------------------------------|
|----------------------------------------------|


  F#5/C#            A5/E
  +H                  H
   |                  |
   /                  /

   T  E.  E  +T   E   e  Q   S  S
|-14-17--14-(14)----/21-19--------|
|----------------17---------22p19-|
|---------------------------------|
|---------------------------------|
|---------------------------------|
|---------------------------------|
|---------------------------------|


  F5/C
   W                             +Q.       E  E E    E       E
   |                              |        |  | |    |       |
   /                              /        o  o o    o       o

                     ~~~~~
   |--3--|                        |--3---|    |----3----|
   S  S  S  Q       +H       e    q   Q  q    q    Q    q
|---------------------------19-|-20--21-22---23---24---24b25---||
|-22p19----19b22===(19)r-------|-------------------------------||
|-------21---------------------|-------------------------------||
|------------------------------|-------------------------------||
|------------------------------|-------------------------------||
|------------------------------|-------------------------------||
|------------------------------|-------------------------------||


 Interlude
  B5                          D5         Bb5/F
  Gtr III
                                >
              ~~~~~~~~~~~~~~~~~~~~~~
   H         +H        +H      +H        W           W
|-24b26=====(24)----|-(24)----(24)r----|----------|--------|
|-------------------|------------------|----------|--------|
|-------------------|------------------|----------|--------|
|-------------------|------------------|----------|--------|
|-------------------|------------------|----------|--------|
|-------------------|------------------|----------|--------|
|-------------------|------------------|----------|--------|
|
| Gtr I
|                                        ~~~~~~~~~~~~~~~
|  W                   +H       H        W          +W
|-------------------|------------------|----------|--------|
|-------------------|------------------|----------|--------|
|-------------------|------------------|----------|--------|
|-------------------|------------------|----------|--------|
|--2----------------|--(2)-----/5------|----------|--------|
|--2----------------|--(2)------x------|-6--------|-(6)----|
|--0----------------|--(0)-----/3------|----------|--------|
|
| Gtr II
|  W                   +H       H        W          +W
|-------------------|------------------|----------|--------|
|-------------------|------------------|----------|--------|
|-------------------|------------------|----------|--------|
|-------------------|------------------|----------|--------|
|--2----------------|--(2)------5------|-8--------|-(8)----|
|--2----------------|--(2)------5------|-6--------|-(6)----|
|--0----------------|--(0)------3------|-6--------|-(6)----|


                              1.,2.
    B5                D5      Bb5/F
    Gtr I
                              ~~~~~~~~~~
    W          +H      H      W
||-----------|--------------|----------|
||-----------|--------------|----------|
||o----------|--------------|----------|
||-----------|--------------|----------|
||o-2--------|-(2)----/5----|----------|
||--2--------|-(2)-----x----|-6--------|
||--0--------|-(0)----/3----|----------|
|
|   Gtr II
|   W          +H      H      W
||-----------|--------------|----------|
||-----------|--------------|----------|
||o----------|--------------|----------|
||-----------|--------------|----------|
||o-2--------|-(2)-----5----|-8--------|
||--2--------|-(2)-----5----|-6--------|
||--0--------|-(0)-----3----|-6--------|


                 3.
 ~~~~~~~~~~~~~~~~~~~~~~~~~~~~~~~
  +W          3x W          +H     H
|-------------||----------|--------------||
|-------------||----------|--------------||
|------------o||----------|--------------||
|-------------||----------|--------------||
|------------o||----------|--------------||
|-(6)---------||-6--------|-(6)----6/----||
|-------------||----------|--------------||
|
| +W          3x W          +W
|-------------||----------|--------------||
|-------------||----------|--------------||
|------------o||----------|--------------||
|-------------||----------|--------------||
|-(8)--------o||-8--------|-(8)----------||
|-(6)---------||-6--------|-(6)----------||
|-(6)---------||-6--------|-(6)----------||


   Guitar Break
    BbA5         Bb5A5
    E E S  S S S  E E S S S S
||----------------------------|
||----------------------------|
||o---------------------------|
||--8-7----------/8-7---------|
||o-8-7----------/8-7---------|
||------5--5-5-5------5-5-5-5-|
||----------------------------|
|
|   E E H.
||----------------------------|
||----------------------------|
||o---------------------------|
||--8-7-----------------------|
||o-8-7-----------------------|
||--6-5-----------------------|
||----------------------------|


                                 1.
  Bb5A5                          Bb5A5         Bb5A5
   E E S S S S S S S S S S S S    E E S  S S S  E E S S S S
|------------------------------|----------------------------|
|------------------------------|----------------------------|
|------------------------------|----------------------------|
|-/8-7-------------------------|-/8-7----------/8-7---------|
|-/8-7-------------------------|-/8-7----------/8-7---------|
|------5-5-5-5-0-0---0-0-0-0-0-|------5--5-5-5------5-5-5-5-|
|------------------------------|----------------------------|
|
|  H           S S S S S S S S    E E H.
|------------------------------|----------------------------|
|------------------------------|----------------------------|
|------------------------------|----------------------------|
|------------------------------|-/8-7-----------------------|
|------------------------------|-/8-7-----------------------|
|--------------0-0---0-0-0-0-0-|-/6-5-----------------------|
|------------------------------|----------------------------|


  Bb5A5
   E E S S S S S S S S S S S S
|-------------------------------||
|-------------------------------||
|------------------------------o||
|-/8-7--------------------------||
|-/8-7-------------------------o||
|------5-5-5-5-0-0-0-0-0-0-0-0--||
|-------------------------------||
|
|  H           S S S S S S S S
|-------------------------------||
|-------------------------------||
|------------------------------o||
|-------------------------------||
|------------------------------o||
|--------------0-0-0-0-0-0-0-0--||
|-------------------------------||


  2.
  Bb5A5         Bb5A5          N.C.
                                ~~~~~~~~~~~~~~~~~~
   E E S  S S S  E E S S S S    Q    Q    Q    Q
|----------------------------|---------------------||
|----------------------------|---------------------||
|----------------------------|---------------------||
|-/8-7----------/8-7---------|-[8]-----------------||
|-/8-7----------/8-7---------|------[7]--[8]-------||
|------5--5-5-5------5-5-5-5-|----------------[6]--||
|----------------------------|---------------------||
|
|                               ~~~~~~~~~~~~~~~~~~
|  E E H.                       Q    Q    Q    Q
|----------------------------|---------------------||
|----------------------------|---------------------||
|----------------------------|---------------------||
|-/8-7-----------------------|-[8]--[7]--[6]-------||
|-/8-7-----------------------|----------------[7]--||
|-/6-5-----------------------|---------------------||
|----------------------------|---------------------||


   Interlude
    F5E5        F5E5
    Gtrs I, II
    E E S S S S E E S S S S
||--------------------------|
||--------------------------|
||o-------------------------|
||--------------------------|
||o-8-7---------8-7---------|
||--8-7---------8-7---------|
||------5-5-5-5-----5-5-5-5-|


                                1.
  F5E5                          F5E5        F5E5
  E E S S S S S S S S S S S S   E E S S S S E E S S S S
|-----------------------------|-------------------------|
|-----------------------------|-------------------------|
|-----------------------------|-------------------------|
|-----------------------------|-------------------------|
|-8-7-------------------------|-8-7---------8-7---------|
|-8-7-------------------------|-8-7---------8-7---------|
|-----5-5-5-5-0-0---0-0-0-0-0-|-----5-5-5-5-----5-5-5-5-|


                                  2.
  F5E5                            F5E5        F5E5          F5  D5 E5  Bb5
  E E S S S S S S S S S S S S     E E S S S S E E S S S S   Q   Q  Q   Q
|------------------------------||-------------------------|----------------||
|------------------------------||-------------------------|----------------||
|-----------------------------o||-------------------------|----------------||
|------------------------------||-------------------------|----------------||
|-8-7-------------------------o||-8-7---------8-7---------|-8\--5--7\--1---||
|-8-7--------------------------||-8-7---------8-7---------|-8\--5--7\--1---||
|-----5-5-5-5-0-0-0-0-0-0-0-0--||-----5-5-5-5-----5-5-5-5-|----------------||


   Chorus
    N.C.
               PM|   PM----|
     E S  E. E S S E S S S S
||---------------------------|
||---------------------------|
||o--------------------------|
||---------------------------|
||o--------------------------|
||---------------------------|
||--10-0-10\-0-0-0-0-0-0-0-0-|


                           1.
           PM|   PM----|              PM|   PM----|
  E S E. E S S E S S S S   S S S E. E S S E S S S S
|------------------------|--------------------------|
|------------------------|--------------------------|
|------------------------|--------------------------|
|------------------------|--------------------------|
|------------------------|--------------------------|
|------------------------|--------------------------|
|-8-0-8\-0-0-0-0-0-0-0-0-|-6-6-6-6\-0-0-0-0-0-0-0-0-|


  S S S S S S S S S S S S S S S S
|----------------------------------||
|----------------------------------||
|---------------------------------o||
|----------------------------------||
|---------------------------------o||
|----------------------------------||
|-5p0-0-6p0-0-3p0-0-5p0-0-2p0-3p0--||


  2.
             PM|   PM----|
  S S S E. E S S E S S S S   S S S S S S S S S S S S S S S S
|--------------------------|----------------------------------||
|--------------------------|----------------------------------||
|--------------------------|----------------------------------||
|--------------------------|----------------------------------||
|--------------------------|----------------------------------||
|--------------------------|----------------------------------||
|-6-6-6-6\-0-0-0-0-0-0-0-0-|-5p0-0-6p0-0-3p0-0-5p0-0-2p0-3p0--||


   Bridge
         PM--------|                           PM--------|
    S  S S S S S S S S  S S S  S S S  S   S  S S S S S S S S  S S S  S S S  S
||--------------------------------------|--------------------------------------|
||--------------------------------------|--------------------------------------|
||o-------------------------------------|--------------------------------------|
||--------------------------------------|--------------------------------------|
||o-------------------------------------|--------------------------------------|
||--7h12-0-0-0-0-0-0-7h12-0-7h12-0-7h12-|-8h13-0-0-0-0-0-0-8h13-0-8h13-0-8h13--|
||--------------------------------------|--------------------------------------|


       PM--------|                           PM--------|
  S  S S S S S S S S  S S S  S S S  S   S  S S S S S S S S  S S S  S S S  S
|-------------------------------------|--------------------------------------||
|-------------------------------------|--------------------------------------||
|-------------------------------------|-------------------------------------o||
|-------------------------------------|--------------------------------------||
|-------------------------------------|-------------------------------------o||
|-6h11-0-0-0-0-0-0-6h11-0-6h11-0-6h11-|-7h12-0-0-0-0-0-0-7h12-0-7h12-0-7h12--||
|-------------------------------------|--------------------------------------||


   Outro
    E5              A5/E            Em
    PM-|            PM-|            PM-|
    E. E. Q.   Q    E. E. Q.   Q    E. E. Q.   Q
||----------------|---------------|---------------|
||----------------|---------------|---------------|
||o---------------|---------------|---------------|
||--9--9--9----9--|-7--7--7----7--|-5--5--5----5--|
||o-7--7--7----7--|-7--7--7----7--|-7--7--7----7--|
||--0--0--0----0--|-0--0--0----0--|-0--0--0----0--|
||----------------|---------------|---------------|


  Fmaj7   N.C.         E5
  PM----|
  E. E. E S E S Q      H     H
|-------------------||------------*|
|-------------------||------------*|
|------------------o||------------*|
|-3--3--3-----------||------------*|
|-7--7--7-5-7-5-8--o||-7\---------*|
|-0--0--0-x-x-x-x---||-7\---------*|
|---------3-5-3-6---||-5\---------*|



Duration Legend
---------------
W - whole; H - half; Q - quarter; E - 8th; S - 16th; T - 32nd; X - 64th; a - acciaccatura
+ - note tied to previous; . - note dotted; .. - note double dotted
Uncapitalized letters represent notes that are staccato (1/2 duration)
Irregular groupings are notated above the duration line
Duration letters will always appear directly above the note/fret number it represents the
duration for.  Duration letters with no fret number below them represent rests.  Multi-
bar rests are notated in the form Wxn, where n is the number of bars to rest for.  Low
melody durations appear below the staff

Tablature Legend
----------------
 h   - hammer-on
 p   - pull-off
 b   - bend
 pb  - pre-bend
 r   - bend release (if no number after the r, then release immediately)
 /\  - slide into or out of (from/to "nowhere")
 s   - legato slide
 S   - shift slide
 - natural harmonic
[n]  - artificial harmonic
n(n) - tapped harmonic
 ~   - vibrato
 tr  - trill
 T   - tap
 TP  - trem. picking
 PM  - palm muting
\n/  - tremolo bar dip; n = amount to dip
 \n  - tremolo bar down
 n/  - tremolo bar up
/n\  - tremolo bar inverted dip
 =   - hold bend; also acts as connecting device for hammers/pulls
 <> - volume swell (louder/softer)
 x   - on rhythm slash represents muted slash
 o   - on rhythm slash represents single note slash

Misc Legend
-----------
 |  - bar
||  - double bar
||o - repeat start
o|| - repeat end
*|  - double bar (ending)
 :  - bar (freetime)
 $  - Segno
 &  - Coda
Tempo markers -  = BPM(8/16=s8/s16), where s8 = swing 8ths, s16 = swing 16ths

comments
We did not receive enough feedback on this tab! Please rate:
1 2 3 4 5
I want to post or [tab]
guest
You may want to rate the tab now too:
select rating
Please do not post tabs as comments. Select "correction" instead!