Oops, an error
Loading. Please wait.

Final Product Tab

ver1
ver1

Whole song

More versions @911Tabs.com
7,496 views 9 this week
7 commentsread comments
1 2 3 4 5
excellent!
x 6
Autoscroll
+/-
esc
set tempo
stop
Contributor
Difficulty
intermediate
WARNING: You are trying to view
                                    content from Ultimate-Guitar.com
                                    in an unauthorized application,
                                    which is prohibited.

                                    Please use an official Ultimate
                                    Guitar Tabs application for iPhone,
                                    iPad or Android to access legitimate
                                    chords, guitar, bass, and drum tabs
                                    from Ultimate-Guitar.com database.

                                    Type "ultimate guitar tabs" in Apple
                                    App Store's or Android Market's
                                    search to find the application.
Nevermore - Final Product 
credit-Salmon Farooq from Mysongbook.com for steve 2nd solo

   (Steve And Jeff, intro)
  |---------------------------|---------------------------------|
  |---------------------------|---------------------------------|
 7|---------------------------|---------------------------------|
 -|8-8-8-8-8-8-8-8-9-9-9-9-9-9|9-9-9-9-9-9-9-9-11-11-11-11-11-11|
 8|---------------------------|---------------------------------|
  |---------------------------|---------------------------------|
  |---------------------------|---------------------------------|
 
  |---------------------------|-----------------------------|
  |---------------------------|-----------------------------|
  |---------------------------|-----------------------------|
  |8-8-8-8-8-8-8-8-6-6-6-6-6-6|6-6-6-6-6-6-6-6-6-6-6-6-6-6-6|
  |---------------------------|-----------------------------|
  |---------------------------|-----------------------------|
  |---------------------------|-----------------------------|

  |---------------------------|---------------------------------|
  |---------------------------|---------------------------------|
  |---------------------------|---------------------------------|
  |8-8-8-8-8-8-8-8-9-9-9-9-9-9|9-9-9-9-9-9-9-9-11-11-11-11-11-11|
  |---------------------------|---------------------------------|
  |---------------------------|---------------------------------|
  |---------------------------|---------------------------------|

  |------------------------------------------------|
  |------------------------------------------------|
  |------------------------------------------------|
  |13-13-13-13-13-13-13-13-13-13-13-13b-13b-13b-13b|
  |------------------------------------------------|
  |------------------------------------------------|
  |------------------------------------------------|

  |-------------------------------------------------------|
  |-------------------------------------------------------|
  |-------------------------------------------------------|
  |13b-13b-13b-13b-13b-13b-13b-13b-13b-13b-13b-13b-13b-13b|
  |-------------------------------------------------------|
  |-------------------------------------------------------|
  |-------------------------------------------------------|
  
___________________________________________________
   |-----|                                         \
   |-----|                                          \
  4|-----|  1st time ony                             \
  -|-13h-|                                            \
  4|-----|                                             \
   |-----|                                              \
   |-----|                                               \ 
                                                          \
  |------------|-----------|------------|-------------||   \
  |------------|-----------|------------|-------------||    \_____(jeff and
 4|------------|-----------|------------|------------O||    /      steve, 
 -|------------|-----------|------------|-------------||   /       verse 1)
 4|------------|-----------|------------|------------O||  / 
  |6-6-6-776-7-|6-6-6-996-9|6-6-6-776-7-|6-6-6-99999--|| /
  |4-4-4-554-5-|4-4-4-774-7|4-4-4-554-5-|4-4-4-77777--||/
_______________________________________________________/


   (Steve and Jeff, verse 2)
  |--------------|--------------|--------------|--------------||
  |--------------|--------------|--------------|--------------||
  |--------------|--------------|--------------|-------------O||
  |--------------|--------------|--------------|--------------||
  |4--4----------|4--4----------|4--4----------|4--4---------O||
  |4--4--445-4-5-|4--4--447-4-7-|4--4--445-4-5-|4--4--477777--||
  |2--2--223-2-3-|2--2--225-2-5-|2--2--223-2-3-|2--2--255555--||


   (steve and jeff, pre-chorus)
  |-------------|-------------|-------------|-------------|
  |-----0--0--0-|-----0--0--0-|-----0--0--0-|-----0-------|
  |-------------|-------------|-------------|-------------|
  |-------------|-------------|-------------|-------------|
  |2--2---------|3--3---------|4--4---------|5--5---------|
  |2--2---------|3--3---------|4--4---------|5--5----5-7-5|
  |0--0---------|1--1---------|2--2---------|3--3----3-5-3|

  |-------------|-------------|-------------|-------------|
  |-----0--0--0-|-----0--0--0-|-----0--0--0-|-----0--0--0-|
  |-------------|-------------|-------------|-------------|
  |-------------|-------------|-------------|-------------|
  |2--2---------|5--5---------|4--4---------|3--3---------|
  |2--2---------|5--5---------|4--4---------|3--3---------|
  |0--0---------|3--3---------|2--2---------|1--1---------|


   (jeff, chorus)
  |--------------------|------------------|-----------------|--------------|
  |--------------------|------------------|-----------------|--------------|
  |-----10---(10)------|---10-----8-------|-----8--(8)------|---8-----6----|
  |---8----------8-----|-7----7-------7---|---6-------6-----|-5---5-----5--|
  |--------------------|------------------|-----------------|--------------|
  |-9--------------9-8-|--------8-------8-|-7-----------7-6-|-------6-----6|
  |--------------------|------------------|-----------------|--------------|

   (steve, chorus)
  |-------------------------------------------------|
  |-------------------------------------------------|
  |-10-10-10-10-10-10-10-10-10-10-10-10-10-10-10-10-|
  |-8--8--8--8--8--8--8--8--8--8--8--8--8--8--7--7--|
  |-x--x--x--x--x--x--x--x--x--x--x--x--x--x--x--x--|
  |-9--9--9--9--9--9--9--9--9--9--9--9--9--9--8--8--|
  |-------------------------------------------------|

  |----------------------------------------------------|
  |----------------------------------------------------|
  |-10-10-10-10-10-10-10-10-10-8--8--8--8--8--8--8--8--|
  |-7--7--7--7--7--7--7--7--7--7--7--7--7--7--7--7--7--|
  |-x--x--x--x--x--x--x--x--x--x--x--x--x--x--x--x--x--|
  |-8--8--8--8--8--8--8--8--8--8--8--8--8--8--8--8--8--|
  |----------------------------------------------------|

  |----------------------------------------------------|
  |----------------------------------------------------|
  |-8--8--8--8--8--8--8--8--8--8--8--8--8--8--8--8--8--|
  |-6--6--6--6--6--6--6--6--6--6--6--6--6--6--6--5--5--|
  |-x--x--x--x--x--x--x--x--x--x--x--x--x--x--x--x--x--|
  |-7--7--7--7--7--7--7--7--7--7--7--7--7--7--7--6--6--|
  |----------------------------------------------------|

  |----------------------------------------------------|
  |----------------------------------------------------|
  |-8--8--8--8--8--8--8--8--6--6--6--6--6--6--6--6--6--|
  |-5--5--5--5--5--5--5--5--5--5--5--5--5--5--5--5--5--|
  |-x--x--x--x--x--x--x--x--x--x--x--x--x--x--x--x--x--|
  |-6--6--6--6--6--6--6--6--6--6--6--6--6--6--6--6--6--|
  |----------------------------------------------------|

   (jeff, verse 2)
           ____  ___   ____ _____     ______
   \    / |     |___| |     |               |
    \  /  |---- |\    |----||----     |-----|
     \/   |____ | \   _____||____     |______

    (steve, solo 1)                             if flat, play 1 fret up.
|----------5--454-----------23455--5556-5-6-5-12--11-16--151615-------------
|---4--5-4-------5--4544--45-----------------------------------15--151615-13
|---------------------------------------------------------------------------
|---------------------------------------------------------------------------
|---------------------------------------------------------------------------
|---------------------------------------------------------------------------
|---------------------------------------------------------------------------

   (jeff and steve, bridge)
  |---------------------|---------------------|---------------------|
  |---------------------|---------------------|---------------------|
  |---------------------|---------------------|---------------------|
  |---------------------|---------------------|---------------------|
  |---------------------|---------------------|---------------------|
  |-333--333--333--333--|-333--333--333--333--|-666--666--666--666--|
  |---------------------|---------------------|---------------------|

  |---------------------|
  |---------------------|
  |---------------------|
  |---------------------|
  |---------------------|
  |-555--555------------|
  |-----------777--555--|





   (jeff tapping solo)

  |-14-9-12-9---14-9----------------------|
  |-----------12----12-14-9-12-9---14-9---|
  |------------------------------11----11-|
  |---------------------------------------|
  |---------------------------------------|
  |---------------------------------------|
  |---------------------------------------|

  |---------------------------------------|
  |-------------------14-9-12-9--14-9-----|
  |-13-9-11-9--13-9-11---------11----11---|
  |----------11---------------------------|
  |---------------------------------------|
  |---------------------------------------|
  |---------------------------------------|
   ____
   |1
  |----------------------------------------||
  |-14-9/14-14-9/14-14/9/14-14-9/14-------O||
  |----------------------------------------||
  |----------------------------------------||
  |----------------------------------------||
  |---------------------------------------O||
  |----------------------------------------||
   ____
   |2
  |-149149129--149--------------------------------------|
  |----------12---12141214129--149----------------------|
  |--------------------------11---11131113119139139119--|
  |---------------------------------------------------11|
  |-----------------------------------------------------|
  |-----------------------------------------------------|
  |-----------------------------------------------------|


   (jeff, pedal point lick)
|-------------------------------------------------------17---------------20-
|-------------------17----------------19------------------------------------
|-20-14-17-20-17-14----14-17-20-17-14----14-17-20-17-14----14-17-19-17-14-14
|---------------------------------------------------------------------------
|---------------------------------------------------------------------------
|---------------------------------------------------------------------------
|---------------------------------------------------------------------------


  |-------------------------------------------------|
  |-------------17----------------20----------------|
  |-17-20-17-14----14-17-20-17-14----14-17-20-17-14-|
  |-------------------------------------------------|
  |-------------------------------------------------|
  |-------------------------------------------------|
  |-------------------------------------------------|


  |----------------------|
  |-19----------------16-|
  |----14-17-20-17-14----|
  |----------------------|
  |----------------------|
  |----------------------|
  |----------------------|


    (steve, pedal point rytym)
  |-------|-------|-------|-------|
  |-------|-------|-------|-------|
  |-------|-------|-------|-------|
  |-------|-------|-------|-------|
  |-------|-------|-------|-------|
  |-2-----|-3--6--|-2-----|-3--6--|
  |----5--|-------|----5--|-------|


   (jeff, diminished run) 2 notes that r on same string r hammerd)
  |-1411----11----------------------|-------------------------------|
  |-----13----13----1310----10------|-1310----10--------------------|
  |-------14----1411----11----11----|-----11----11----118----8------|
  |-----------------------13----1310|-------13----1310---10---10----|
  |---------------------------------|----------------------12---129-|
  |---------------------------------|-------------------------------|
  |---------------------------------|-------------------------------|

  |--------------------------|-----------|
  |--------------------------|-----------|
  |-118----8-----------------|-----------|
  |----10---10---107---7-----|-----------|
  |------12---129---9---9----|-96--6-----|
  |------------------11--118-|---85-8585-|
  |--------------------------|-----------|

   (steve plays jeffs, butt 1 1/2 steps up)

    (steve, solo 2)
   |---------|-------|----------------|------|
   |---------|-------|----------------|------|
   |-12-8-10-|-------|----------------|------|
   |---------|-11h-8-|----------------|------|
   |---------|-------|-------10121312-|------|
   |---------|-------|-101213---------|-11-9-|
   |---------|-------|----------------|------|

   |-------------------------------------------|
   |-------------------------------------------|
   |-------------------------------------------|
   |-------------------------1213151312--------|
   |-------------121312101213----------13101113|
   |-111311101113------------------------------|
   |-------------------------------------------|

   |-------------------------------------------------|
   |-------------------------------------------------|
   |-------------121415141211------------141617--1416|
   |-131513121315------------141311141617------16----|
   |-------------------------------------------------|
   |-------------------------------------------------|
   |-------------------------------------------------|

   |-----------12--------121412--1214------1415-|
   |-1415121415--15121412------15----171517-----|
   |--------------------------------------------|
   |--------------------------------------------|
   |--------------------------------------------|
   |--------------------------------------------|
   |--------------------------------------------|

   |-14------16------161716--19b-19b19b19b-|-19b-|
   |---161719--191719------19--------------|-19b-|
   |---------------------------------------|-----|
   |---------------------------------------|-----|
   |---------------------------------------|-----|
   |---------------------------------------|-----|
   |---------------------------------------|-----|
7 comments total. Showing first comments.
0 reply
COB4ever wrote on March 5 2006, 06:48 pm

good tab the only thing u left out is the slow solo/interlude thingy

0 reply
guitarman47 wrote on May 4 2006, 07:39 pm

and the tuning

0 reply
lamboftrivium wrote on May 10 2006, 11:04 pm

sorry-tuning is 7 string down 1/2 step

I want to post or [tab]
guest
You may want to rate the tab now too:
select rating
Please do not post tabs as comments. Select "correction" instead!