Oops, an error
Loading. Please wait.

Final Product Tab

ver2
ver2

Whole song

More versions @911Tabs.com
2,574 views 3 this week
1 commentread comment
1 2 3 4 5
excellent!
x 4
Autoscroll
+/-
esc
set tempo
stop
Contributor
Difficulty
advanced
WARNING: You are trying to view
                                    content from Ultimate-Guitar.com
                                    in an unauthorized application,
                                    which is prohibited.

                                    Please use an official Ultimate
                                    Guitar Tabs application for iPhone,
                                    iPad or Android to access legitimate
                                    chords, guitar, bass, and drum tabs
                                    from Ultimate-Guitar.com database.

                                    Type "ultimate guitar tabs" in Apple
                                    App Store's or Android Market's
                                    search to find the application.
Gtr I (Bb Eb Ab Db Gb Bb Eb) - 'Untitled'
Gtr II (Bb Eb Ab Db Gb Bb Eb) - 'Untitled'
Gtr III (Bb Eb Ab Db Gb Bb Eb) - 'Untitled'
Gtr IV (Bb Eb Ab Db Gb Bb Eb) - 'Untitled'
Gtr V (Bb Eb Ab Db Gb Bb Eb) - 'Untitled'


   Intro
    Q=148
    N.C.
   7/8
    Gtr III
     S  S  S  S  S  S  S  S  S  S  S  S  S  S
||--------------------------------------------|
||--------------------------------------------|
||o-------------------------------------------|
||---8--8--8--8--8--8--8--8--8--9--9--9--9--9-|
||o-------------------------------------------|
||--------------------------------------------|
||--------------------------------------------|
|
|   Gtrs I, II
|    S  S  S  S  S  S  S  S  S  S  S  S  S  S
||--------------------------------------------|
||--------------------------------------------|
||o-------------------------------------------|
||--------------------------------------------|
||o-11-11-11-11-11-11-11-11-11-11-11-11-11-11-|
||--------------------------------------------|
||---9--9--9--9--9--9--9--9--9--9--9--9--9--9-|


   S  S  S  S  S  S  S  S  S  S  S  S  S  S
|-------------------------------------------|
|-------------------------------------------|
|-------------------------------------------|
|--9--9--9--9--9--9--9--9--9-11-11-11-11-11-|
|-------------------------------------------|
|-------------------------------------------|
|-------------------------------------------|
|
|  S  S  S  S  S  S  S  S  S  S  S  S  S  S
|-------------------------------------------|
|-------------------------------------------|
|-------------------------------------------|
|-------------------------------------------|
|-10-10-10-10-10-10-10-10-10-10-10-10-10-10-|
|-------------------------------------------|
|--8--8--8--8--8--8--8--8--8--8--8--8--8--8-|


  1.
  S S S S S S S S S S S S S S   S S S S S S S S S S S S S S
|-----------------------------|------------------------------||
|-----------------------------|------------------------------||
|-----------------------------|-----------------------------o||
|-8-8-8-8-8-8-8-8-8-6-6-6-6-6-|-6-6-6-6-6-6-6-6-6-6-6-6-6-6--||
|-----------------------------|-----------------------------o||
|-----------------------------|------------------------------||
|-----------------------------|------------------------------||
|
| S S S S S S S S S S S S S S   S S S S S S S S S S S S S S
|-----------------------------|------------------------------||
|-----------------------------|------------------------------||
|-----------------------------|-----------------------------o||
|-----------------------------|------------------------------||
|-9-9-9-9-9-9-9-9-9-9-9-9-9-9-|-8-8-8-8-8-8-8-8-8-8-8-8-8-8-o||
|-----------------------------|------------------------------||
|-7-7-7-7-7-7-7-7-7-7-7-7-7-7-|-6-6-6-6-6-6-6-6-6-6-6-6-6-6--||


  2.
   S  S  S  S  S  S  S  S  S  S  S  S  S  S
|-------------------------------------------|
|-------------------------------------------|
|-------------------------------------------|
|-13-13-13-13-13-13-13-13-13-13-13-13-13-13-|
|-------------------------------------------|
|-------------------------------------------|
|-------------------------------------------|
|
|  S  S  S  S  S  S  S  S  S  S  S  S  S  S
|-------------------------------------------|
|-------------------------------------------|
|-------------------------------------------|
|-------------------------------------------|
|--9--9--9--9--9--9--9--9--9--9--9--9--9--9-|
|-------------------------------------------|
|--7--7--7--7--7--7--7--7--7--7--7--7--7--7-|


   S      S  S  S  S  S  S  S  S  S  S  S  S  S
|------------------------------------------------|
|------------------------------------------------|
|------------------------------------------------|
|-13b14==13-13-13-13-13-13-13-13-13-13-13-13-13r-|
|------------------------------------------------|
|------------------------------------------------|
|------------------------------------------------|
|
|  S      S  S  S  S  S  S  S  S  S  S  S  S  S
|------------------------------------------------|
|------------------------------------------------|
|------------------------------------------------|
|------------------------------------------------|
|--8------8--8--8--8--8--8--8--8--8--8--8--8--8--|
|------------------------------------------------|
|--6------6--6--6--6--6--6--6--6--6--6--6--6--6--|


  D#5       E5  D#E5D#5         F#5 D#F#D#5         E5  D#E5D#5
 4/4
   ~~
   Q   H.               W                   W
|---------------------|-------------------|-------------------|
|---------------------|-------------------|-------------------|
|---------------------|-------------------|-------------------|
|-13------------------|-------------------|-------------------|
|---------------------|-------------------|-------------------|
|---------------------|-------------------|-------------------|
|---------------------|-------------------|-------------------|
|
|  PM  PM   PM----|     PM  PM  PM----|     PM  PM  PM----|
|  E E E  E S S E E E   E E E E S S E E E   E E E E S S E E E
|---------------------|-------------------|-------------------|
|---------------------|-------------------|-------------------|
|---------------------|-------------------|-------------------|
|---------------------|-------------------|-------------------|
|---------------------|-------------------|-------------------|
|----6----6-7-7-6-7-6-|---6---6-9-9-6-9-6-|---6---6-7-7-6-7-6-|
|--4-4-4--4-5-5-4-5-4-|-4-4-4-4-7-7-4-7-4-|-4-4-4-4-5-5-4-5-4-|


  D#5     E5        D#5         E5  D#E5D#5         F#5 D#F#D#5
  Gtrs I, II
  PM  PM  PM------|     PM  PM  PM----|     PM  PM  PM----|
  E E E E S S S S E E   E E E E S S E E E   E E E E S S E E E
|---------------------|-------------------|-------------------|
|---------------------|-------------------|-------------------|
|---------------------|-------------------|-------------------|
|---------------------|-------------------|-------------------|
|---------------------|-------------------|-------------------|
|---6---6-9-9-9-9-9-6-|---6---6-7-7-6-7-6-|---6---6-9-9-6-9-6-|
|-4-4-4-4-7-7-7-7-7-4-|-4-4-4-4-5-5-4-5-4-|-4-4-4-4-7-7-4-7-4-|


                                             Verse
  D#5     E5  D#E5D#5         F#5       C#5           D5  C#D5C#5
  PM  PM  PM----|     PM  PM  PM------|               PM----|
  E E E E S S E E E   E E E E S S S S E E     +Q.   E S S E E E
|-------------------|---------------------||--------------------|
|-------------------|---------------------||--------------------|
|-------------------|---------------------||o-------------------|
|-------------------|---------------------||--------------------|
|-------------------|---------------------||o-------------------|
|---6---6-7-7-6-7-6-|---6---6-9-9-9-9-9-4-||--(4)---4-5-5-4-5-4-|
|-4-4-4-4-5-5-4-5-4-|-4-4-4-4-7-7-7-7-7-2-||--(2)---2-3-3-2-3-2-|


                     1.
  C#5     E5  C#E5C#5         D5  C#D5C#5         E5        C#5
        PM------|           PM------|           PM--------|
  +Q.   E S S E E E   +Q.   E S S E E E   +Q.   E S S S S E E
|-------------------|-------------------|----------------------||
|-------------------|-------------------|----------------------||
|-------------------|-------------------|---------------------o||
|-------------------|-------------------|----------------------||
|-------------------|-------------------|---------------------o||
|-(4)---4-7-7-4-7-4-|-(4)---4-5-5-4-5-4-|-(4)---4-7-7-7-7-7-4--||
|-(2)---2-5-5-2-5-2-|-(2)---2-3-3-2-3-2-|-(2)---2-5-5-5-5-5-2--||


  2.
  C#5     D5  C#D5C#5         E5        B5/F#
        PM------|
  +Q.   E S S E E E   +Q.   E S S S S E E
|-------------------|---------------------||
|-------------------|---------------------||
|-------------------|---------------------||
|-------------------|---------------------||
|-------------------|-------------------2-||
|-(4)---4-5-5-4-5-4-|-(4)---4-7-7-7-7-7-2-||
|-(2)---2-3-3-2-3-2-|-(2)---2-5-5-5-5-5---||


 Pre Chorus
  $
                C5/G              C#5/G#
  +Q   H    +E  E   +Q   H    +E  E
|-----------------|------------------|
|------0----(0)---|------0----(0)----|
|-----------------|------------------|
|-----------------|------------------|
|-(2)-----------3-|-(3)-----------4--|
|-(2)-----------3-|-(3)-----------4--|
|-----------------|------------------|


  C#5/G#        D5/A          D#D5B5/F#             D5/A
                              PM|
  +Q   H    +E  E   +Q   Q.   E E E   +Q   H    +E  E
|-----------------|-----------------|-----------------|
|------0----(0)---|------0----------|------0----(0)---|
|-----------------|-----------------|-----------------|
|-----------------|-----------------|-----------------|
|-(4)-----------5-|-(5)-------6-5-2-|-(2)-----------5-|
|-(4)-----------5-|-(5)-------6-5-2-|-(2)-----------5-|
|-----------------|-----------4-3---|-----------------|


  D5/A          C#5/G#            C5/G
  +Q   H    +E  E   +Q   H    +E  E   +Q   H.
|-----------------|-----------------|------------||
|------0----(0)---|------0----(0)---|------0-----||
|-----------------|-----------------|------------||
|-----------------|-----------------|------------||
|-(5)-----------4-|-(4)-----------3-|-(3)--------||
|-(5)-----------4-|-(4)-----------3-|-(3)--------||
|-----------------|-----------------|------------||


   Chorus
    Db6                                         F/C
   4/4
    Gtr I
     E     E     Q           +E      E     E     E
||----------------------------------------------------|
||----------------------------------------------------|
||o-------------10----------(10)----------------------|
||---------8-------------------------8----------------|
||o---------------------------------------------------|
||---9-------------------------------------9-----8----|
||----------------------------------------------------|
|
|   Gtr II
|    S  S  S  S  S  S  S  S   S   S  S  S  S  S  S  S
||----------------------------------------------------|
||----------------------------------------------------|
||o-10-10-10-10-10-10-10-10--10--10-10-10-10-10-10-10-|
||---8--8--8--8--8--8--8--8---8---8--8--8--8--8--7--7-|
||o---------------------------------------------------|
||---9--9--9--9--9--9--9--9---9---9--9--9--9--9--8--8-|
||----------------------------------------------------|


                          F7/C
   E     E     E     E    Q       E   E
|-----------------------------------------|
|-----------------------------------------|
|-------10----------------8---------------|
|--7-----------7------------------7-------|
|-----------------------------------------|
|--------------------8----------------8---|
|-----------------------------------------|
|
|  S  S  S  S  S  S  S  S S S S S S S S S
|-----------------------------------------|
|-----------------------------------------|
|-10-10-10-10-10-10-10-10-8-8-8-8-8-8-8-8-|
|--7--7--7--7--7--7--7--7-7-7-7-7-7-7-7-7-|
|-----------------------------------------|
|--8--8--8--8--8--8--8--8-8-8-8-8-8-8-8-8-|
|-----------------------------------------|


                                                               To Coda
  B6                            Eb/Bb                 Eb7/Bb
  E   E   Q       +E    E   E   E     E   E   E   E   Q       E   E
|-----------------------------------|-----------------------------------||
|-----------------------------------|-----------------------------------||
|---------8-------(8)---------------|-----8-----------6----------------o||
|-----6-----------------6-----------|-5-------5---------------5---------||
|-----------------------------------|----------------------------------o||
|-7-------------------------7---6---|-------------6---------------6-----||
|-----------------------------------|-----------------------------------||
|
| S S S S S S S S  S  S S S S S S S   S S S S S S S S S S S S S S S S
|-----------------------------------|-----------------------------------||
|-----------------------------------|-----------------------------------||
|-8-8-8-8-8-8-8-8--8--8-8-8-8-8-8-8-|-8-8-8-8-8-8-8-8-6-6-6-6-6-6-6-6--o||
|-6-6-6-6-6-6-6-6--6--6-6-6-6-6-5-5-|-5-5-5-5-5-5-5-5-5-5-5-5-5-5-5-5---||
|-----------------------------------|----------------------------------o||
|-7-7-7-7-7-7-7-7--7--7-7-7-7-7-6-6-|-6-6-6-6-6-6-6-6-6-6-6-6-6-6-6-6---||
|-----------------------------------|-----------------------------------||


 Lead - Smyth
  D#5     E5     D#E5D#5                E5     D#F#5  D#5
  Gtr III
                                                       |--3--|
  H         Q.        E    +E   E E   E  +Q       +E   S  S  S
|-----------------------|--------------------------------------|
|-----------------------|--------------------------------------|
|-----------------------|-----------/14-(14)-----(14)-15p14p13-|
|---------/13--------14-|-(14)-13------------------------------|
|-----------------------|--------------------------------------|
|-----------------------|--------------------------------------|
|-----------------------|--------------------------------------|
|
| Gtrs I, II
| PM  PM    PM-----|        PM    PM      PM-----|
| E E E E   S  S E E  E     E   E E   E   S  S E   E   E
|-----------------------|--------------------------------------|
|-----------------------|--------------------------------------|
|-----------------------|--------------------------------------|
|-----------------------|--------------------------------------|
|-----------------------|--------------------------------------|
|---6---6---7--7-6-7--6-|-------6-----6---9--9-6---9---6-------|
|-4-4-4-4---5--5-4-5--4-|---4---4-4---4---7--7-4---7---4-------|


                   E5   D#E5D#5
           |--3--|
   Q.      S  S  S  H
|-----------------------------|
|-----------------------------|
|-----------------------------|
|-14------14h17p14-13---------|
|-----------------------------|
|-----------------------------|
|-----------------------------|
|
|  PM   PM          PM----|
|  E  E E  E        S S E E E
|-----------------------------|
|-----------------------------|
|-----------------------------|
|-----------------------------|
|-----------------------------|
|-----6----6--------7-7-6-7-6-|
|--4--4-4--4--------5-5-4-5-4-|


  D#5        E5                D#5
   +H         S  S  S  S  S  S  E
|---------------------------------|
|---------------------------------|
|------------------------13-14-15-|
|-(13)-------14-15-16-17----------|
|---------------------------------|
|---------------------------------|
|---------------------------------|
|
|   PM   PM   PM---------|
|   E  E E E  S  S  S  S  E     E
|---------------------------------|
|---------------------------------|
|---------------------------------|
|---------------------------------|
|---------------------------------|
|------6---6--9--9--9--9--9-----6-|
|---4--4-4-4--7--7--7--7--7-----4-|


             E5    D#5E5 D#5                 F#5    D#5F#D#5
   +H          E    E  E  E    +E    E E   E  +E     E E   E
|---------------------------|----------------------------/16-|
|---------------------------|------------/17-(17)---16---/17-|
|-(15)-------/15---15-15-16-|-(16)--15-----------------------|
|---------------------------|--------------------------------|
|---------------------------|--------------------------------|
|---------------------------|--------------------------------|
|---------------------------|--------------------------------|
|                               H..                        E
|
|   PM   PM
|   E  E E E   S S  E  E  E     E    E E   E   S  S  E E   E
|---------------------------|--------------------------------|
|---------------------------|--------------------------------|
|---------------------------|--------------------------------|
|---------------------------|--------------------------------|
|---------------------------|--------------------------------|
|------6---6---7-7--6--7--6-|--------6-----6---9--9--6-9---6-|
|---4--4-4-4---5-5--4--5--4-|---4----4-4---4---7--7--4-7---4-|


  D#5            E5    D#E5D#5
   +Q.      S  S  Q.        E
|-(16)-----18-16-15-----------|
|-(17)-----19-17-16--------16-|
|--------------------------15-|
|-----------------------------|
|-----------------------------|
|-----------------------------|
|-----------------------------|
|  +Q.      S  S  Q.        E
|
|   E  E E  E     S  S E E  E
|-----------------------------|
|-----------------------------|
|-----------------------------|
|-----------------------------|
|-----------------------------|
|------6----6-----7--7-6-7--6-|
|---4--4-4--4-----5--5-4-5--4-|


                                       Verse
             F#5                 C#5             D5  C#D5C#5
                                          >
   +H         +E     E       +E   E      +W
|-----------------------------------||---------------------|
|-(16)-------(16)---16b17r==(16)-14-||--(14)---------------|
|-(15)-------(15)---15b16r==(15)-13-||o-(13)---------------|
|-----------------------------------||---------------------|
|-----------------------------------||o--------------------|
|-----------------------------------||---------------------|
|-----------------------------------||---------------------|
|  +H         +E     E       +E   E      +W
|
|                                                PM----|
|   E  E E E   S  S  S    S   E   E      +Q.   E S S E E E
|-----------------------------------||---------------------|
|-----------------------------------||---------------------|
|-----------------------------------||o--------------------|
|-----------------------------------||---------------------|
|-----------------------------------||o--------------------|
|------6---6---9--9--9----9---9---4-||---(4)---4-5-5-4-5-4-|
|---4--4-4-4---7--7--7----7---7---2-||---(2)---2-3-3-2-3-2-|


  C#5     E5  C#E5C#5         D5  C#D5C#5
  Gtrs I, II
        PM------|           PM------|
  +Q.   E S S E E E   +Q.   E S S E E E
|-------------------|-------------------|
|-------------------|-------------------|
|-------------------|-------------------|
|-------------------|-------------------|
|-------------------|-------------------|
|-(4)---4-7-7-4-7-4-|-(4)---4-5-5-4-5-4-|
|-(2)---2-5-5-2-5-2-|-(2)---2-3-3-2-3-2-|


 1.                      2.
                                  D.S. al Coda
          E5        C#5           E5        B5/F#
        PM--------|             PM--------|
  +Q.   E S S S S E E     +Q.   E S S S S E E
|----------------------||----------------------||
|----------------------||----------------------||
|---------------------o||----------------------||
|----------------------||----------------------||
|---------------------o||-------------------2--||
|-(4)---4-7-7-7-7-7-4--||-(4)---4-7-7-7-7-7-2--||
|-(2)---2-5-5-5-5-5-2--||-(2)---2-5-5-5-5-5----||


 Bridge
  &
  N.C.
  PM--------------------------------------------------------------|
  |-3-|   |-3-|   |-3-|   |-3-|     |-3-|   |-3-|   |-3-|   |-3-|
  S S S E S S S E S S S E S S S E   S S S E S S S E S S S E S S S E
|---------------------------------|---------------------------------|
|---------------------------------|---------------------------------|
|---------------------------------|---------------------------------|
|---------------------------------|---------------------------------|
|---------------------------------|---------------------------------|
|---------------------------------|---------------------------------|
|-8-8-8-8-8-8-8-8-8-8-8-8-8-8-8-8-|-8-8-8-8-8-8-8-8-8-8-8-8-8-8-8-8-|


    Gtr I
     PM----------------------------------------------
     |--3--|     |--3--|     |--3--|     |--3--|
     S  S  S  E  S  S  S  E  S  S  S  E  S  S  S  E
||--------------------------------------------------|
||--------------------------------------------------|
||o-------------------------------------------------|
||--------------------------------------------------|
||o-------------------------------------------------|
||--------------------------------------------------|
||--11-11-11-11-11-11-11-11-11-11-11-11-11-11-11-11-|
|
|   Gtr II
|    PM----------------------------------------------
|    |--3--|     |--3--|     |--3--|     |--3--|
|    S  S  S  E  S  S  S  E  S  S  S  E  S  S  S  E
||--------------------------------------------------|
||--------------------------------------------------|
||o-------------------------------------------------|
||--------------------------------------------------|
||o-------------------------------------------------|
||--------------------------------------------------|
||---8--8--8--8--8--8--8--8--8--8--8--8--8--8--8--8-|


 -----------------------------------|
   |--3--|     |--3--|    |-3-|
   S  S  S  E  S  S  S  E S S S E E E
|--------------------------------------|
|--------------------------------------|
|--------------------------------------|
|--------------------------------------|
|--------------------------------------|
|--------------------------------------|
|-10-10-10-10-10-10-10-10-8-8-8-8-8-7--|
|
|-----------------------------------|
|  |--3--|     |--3--|    |-3-|
|  S  S  S  E  S  S  S  E S S S E E E
|--------------------------------------|
|--------------------------------------|
|--------------------------------------|
|--------------------------------------|
|--------------------------------------|
|--------------------------------------|
|--7--7--7--7--7--7--7--7-4-4-4-4-4-3--|


  N.C.
  PM-------------------------------
  |-3-|   |-3-|   |-3-|   |-3-|
  S S S E S S S E S S S E S S S E
|---------------------------------|
|---------------------------------|
|---------------------------------|
|---------------------------------|
|---------------------------------|
|---------------------------------|
|-8-8-8-8-8-8-8-8-8-8-8-8-8-8-8-8-|
|
| PM-------------------------------
| |-3-|   |-3-|   |-3-|   |-3-|
| S S S E S S S E S S S E S S S E
|---------------------------------|
|---------------------------------|
|---------------------------------|
|---------------------------------|
|---------------------------------|
|---------------------------------|
|-8-8-8-8-8-8-8-8-8-8-8-8-8-8-8-8-|


 ----------------------------------------------|
   |--3--|     |--3--|     |--3--|     |--3--|
   S  S  S  E  S  S  S  E  S  S  S  E  S  S  S  E
|-------------------------------------------------|
|-------------------------------------------------|
|-------------------------------------------------|
|-------------------------------------------------|
|-------------------------------------------------|
|-------------------------------------------------|
|-11-11-11-11-11-11-11-11-11-11-11-11-11-11-11-11-|
|
|----------------------------------------------|
|  |--3--|     |--3--|     |--3--|     |--3--|
|  S  S  S  E  S  S  S  E  S  S  S  E  S  S  S  E
|-------------------------------------------------|
|-------------------------------------------------|
|-------------------------------------------------|
|-------------------------------------------------|
|-------------------------------------------------|
|-------------------------------------------------|
|--8--8--8--8--8--8--8--8--8--8--8--8--8--8--8--8-|


  (G5)
   PM----------------------------------------------
   |--3--|     |--3--|     |--3--|     |--3--|
   S  S  S  E  S  S  S  E  S  S  S  E  S  S  S  E
|-------------------------------------------------|
|-------------------------------------------------|
|-------------------------------------------------|
|-------------------------------------------------|
|-------------------------------------------------|
|-10-10-10-10-10-10-10-10-10-10-10-10-10-10-10-10-|
|-------------------------------------------------|
|
|  PM----------------------------------------------
|  |--3--|     |--3--|     |--3--|     |--3--|
|  S  S  S  E  S  S  S  E  S  S  S  E  S  S  S  E
|-------------------------------------------------|
|-------------------------------------------------|
|-------------------------------------------------|
|-------------------------------------------------|
|-------------------------------------------------|
|-------------------------------------------------|
|--8--8--8--8--8--8--8--8--8--8--8--8--8--8--8--8-|


  (F#5)           (Eb5)          (D5)
 --------------------------------|
  |-3-|   |-3-|    |--3--|
  S S S E S S S E  S  S  S  E  E  E
|-----------------------------------||
|-----------------------------------||
|-----------------------------------||
|-----------------------------------||
|-----------------------------------||
|-9-9-9-9-9-9-9-9-------------------||
|-----------------11-11-11-11-11-10-||
|
|--------------------------------|
| |-3-|   |-3-|    |--3--|
| S S S E S S S E  S  S  S  E  E  E
|-----------------------------------||
|-----------------------------------||
|-----------------------------------||
|-----------------------------------||
|-----------------------------------||
|-----------------------------------||
|-7-7-7-7-7-7-7-7--4--4--4--4--4--3-||


 Lead - Loomis
  1.
  N.C.     E5     F5D5  N.C.       E5     E5G5   N.C.     E5     F5D5
  Gtr IV
   W                     +W                       W
|-15------------------|-(15)-------------------|-16-------------------|
|---------------------|------------------------|----------------------|
|---------------------|------------------------|----------------------|
|---------------------|------------------------|----------------------|
|---------------------|------------------------|----------------------|
|---------------------|------------------------|----------------------|
|---------------------|------------------------|----------------------|
|
| Gtr III
|  W                     +W                       W
|-12------------------|-(12)-------------------|-13-------------------|
|---------------------|------------------------|----------------------|
|---------------------|------------------------|----------------------|
|---------------------|------------------------|----------------------|
|---------------------|------------------------|----------------------|
|---------------------|------------------------|----------------------|
|---------------------|------------------------|----------------------|
|
| Gtrs I, II
|  PM----|                PM-----|                PM----|
|  S S S S Q  E E E E     S  S S S Q  E E E  E    S S S S Q  E E E E
|---------------------|------------------------|----------------------|
|---------------------|------------------------|----------------------|
|---------------------|------------------------|----------------------|
|---------------------|------------------------|----------------------|
|---------------------|------------------------|----------------------|
|----------7----7-8-5-|------------7----7-8-10-|----------7----7-8-5--|
|--5-5-6-6-5----5-6-3-|---5--5-6-6-5----5-6--8-|--5-5-6-6-5----5-6-3--|


  N.C.     E5     F5G5   N.C.     E5     F5D5  N.C.       E5     F5G5
   W                      W                     +W
|----------------------|-19------------------|-(19)--------------------|
|-12-------------------|---------------------|-------------------------|
|----------------------|---------------------|-------------------------|
|----------------------|---------------------|-------------------------|
|----------------------|---------------------|-------------------------|
|----------------------|---------------------|-------------------------|
|----------------------|---------------------|-------------------------|
|
|  W                      W                     +W
|----------------------|-16------------------|-(16)--------------------|
|----------------------|---------------------|-------------------------|
|-13-------------------|---------------------|-------------------------|
|----------------------|---------------------|-------------------------|
|----------------------|---------------------|-------------------------|
|----------------------|---------------------|-------------------------|
|----------------------|---------------------|-------------------------|
|
|  PM----|                PM----|                PM-----|
|  S S S S Q  E E E  E    S S S S Q  E E E E     S  S S S Q  E E E  E
|----------------------|---------------------|-------------------------|
|----------------------|---------------------|-------------------------|
|----------------------|---------------------|-------------------------|
|----------------------|---------------------|-------------------------|
|----------------------|---------------------|-------------------------|
|----------7----7-8-10-|----------7----7-8-5-|------------7----7-8-10--|
|--5-5-6-6-5----5-6--8-|--5-5-6-6-5----5-6-3-|---5--5-6-6-5----5-6--8--|


  N.C.     E5     F5D5  N.C.      E5            F5       G5
   W                     H            +H
|-20------------------|-------------------------------------|
|---------------------|-17-----------(17)b18================|
|---------------------|-------------------------------------|
|---------------------|-------------------------------------|
|---------------------|-------------------------------------|
|---------------------|-------------------------------------|
|---------------------|-------------------------------------|
|
|  W                     H.                      +Q
|-17------------------|-------------------------------------|
|---------------------|-14----------------------(14)b15=====|
|---------------------|-------------------------------------|
|---------------------|-------------------------------------|
|---------------------|-------------------------------------|
|---------------------|-------------------------------------|
|---------------------|-------------------------------------|
|
|  PM----|               PM-----|
|  S S S S Q  E E E E    S  S S S Q    E      E   E       E
|---------------------|-------------------------------------|
|---------------------|-------------------------------------|
|---------------------|-------------------------------------|
|---------------------|-------------------------------------|
|---------------------|-------------------------------------|
|----------7----7-8-5-|-----------7-----------7---8------10-|
|--5-5-6-6-5----5-6-3-|--5--5-6-6-5-----------5---6-------8-|


  N.C.
                                         >
   +W                                   +W
|------------------------------------|--------------------------------------||
|-(17)-------------------------------|-(17)r--------------------------------||
|------------------------------------|-------------------------------------o||
|------------------------------------|--------------------------------------||
|------------------------------------|-------------------------------------o||
|------------------------------------|--------------------------------------||
|------------------------------------|--------------------------------------||
|
|                                        >
|  +W                                   +W
|------------------------------------|--------------------------------------||
|-(14)-------------------------------|-(14)r--------------------------------||
|------------------------------------|-------------------------------------o||
|------------------------------------|--------------------------------------||
|------------------------------------|-------------------------------------o||
|------------------------------------|--------------------------------------||
|------------------------------------|--------------------------------------||
|
|   PM-------------------------------------------------------------------|
|   |-3--|   |-3-|   |-3-|   |-3-|       |--3--|   |-3-|   |-3-|   |-3-|
|   S  S S E S S S E S S S E S S S E     S   S S E S S S E S S S E S S S E
|------------------------------------|--------------------------------------||
|------------------------------------|--------------------------------------||
|------------------------------------|-------------------------------------o||
|------------------------------------|--------------------------------------||
|------------------------------------|-------------------------------------o||
|------------------------------------|--------------------------------------||
|---8--8-8-8-8-8-8-8-8-8-8-8-8-8-8-8-|---8---8-8-8-8-8-8-8-8-8-8-8-8-8-8-8--||


   Lead - Loomis
    2.
    C#5  D5   C#5
    Gtr III
     T              T        T             T
     S S  S S   S   S S   S  S S  S S   S  S S   S
||--14p9h12p9------14p9----------------------------|
||------------h12-------h12-14p9h12p9-----14p9-----|
||o-----------------------------------h11------h11-|
||-------------------------------------------------|
||o------------------------------------------------|
||-------------------------------------------------|
||-------------------------------------------------|
|
|   Gtrs I, II
|    E    E     H.
||-------------------------------------------------|
||-------------------------------------------------|
||o------------------------------------------------|
||-------------------------------------------------|
||o------------------------------------------------|
||---4----5-----4----------------------------------|
||---2----3-----2----------------------------------|


   T              T       T             T
   S  S  S S   S  S S  S  S S  S S   S  S S   S
|-----------------------------------------------|
|------------------------14p9h12p9-----14p9-----|
|-13--9h11p9-----13p9h11-----------h11------h11-|
|------------h11--------------------------------|
|-----------------------------------------------|
|-----------------------------------------------|
|-----------------------------------------------|
|
| +W
|-----------------------------------------------|
|-----------------------------------------------|
|-----------------------------------------------|
|-----------------------------------------------|
|-----------------------------------------------|
|-(4)-------------------------------------------|
|-(2)-------------------------------------------|


  D5   C#5  D5
   T              T        T             T
   S S  S S   S   S S   S  S S  S S   S  S S   S
|-14p9h12p9------14p9----------------------------|
|-----------h12-------h12-14p9h12p9-----14p9-----|
|-----------------------------------h11------h11-|
|------------------------------------------------|
|------------------------------------------------|
|------------------------------------------------|
|------------------------------------------------|
|
|  E    E     H.
|------------------------------------------------|
|------------------------------------------------|
|------------------------------------------------|
|------------------------------------------------|
|------------------------------------------------|
|--5----4-----5----------------------------------|
|--3----2-----3----------------------------------|


   T        T       T            T
   S  a  E  S a  E  S a  S  +S   S a  Q.
|------------------------------------------|
|-14--9s14-14-9s14-14-9s14-(14)-14-9s14----|
|------------------------------------------|
|------------------------------------------|
|------------------------------------------|
|------------------------------------------|
|------------------------------------------|
|
| +W
|------------------------------------------|
|------------------------------------------|
|------------------------------------------|
|------------------------------------------|
|------------------------------------------|
|-(5)--------------------------------------|
|-(3)--------------------------------------|


  C#5  D5   C#5
   T              T        T             T
   S S  S S   S   S S   S  S S  S S   S  S S   S
|-14p9h12p9------14p9----------------------------|
|-----------h12-------h12-14p9h12p9-----14p9-----|
|-----------------------------------h11------h11-|
|------------------------------------------------|
|------------------------------------------------|
|------------------------------------------------|
|------------------------------------------------|
|
|  E    E     H.
|------------------------------------------------|
|------------------------------------------------|
|------------------------------------------------|
|------------------------------------------------|
|------------------------------------------------|
|--4----5-----4----------------------------------|
|--2----3-----2----------------------------------|


   T              T       T             T
   S  S  S S   S  S S  S  S S  S S   S  S S   S
|------------------------------------------------|
|------------------------14p9h12p9-----14p9------|
|-13--9h11p9-----13p9h11-----------h11------h11--|
|------------h11---------------------------------|
|------------------------------------------------|
|------------------------------------------------|
|------------------------------------------------|
|
| +W
|------------------------------------------------|
|------------------------------------------------|
|------------------------------------------------|
|------------------------------------------------|
|------------------------------------------------|
|-(4)--------------------------------------------|
|-(2)--------------------------------------------|


  1.
  D5   C#5  D5
   T              T        T             T
   S S  S S   S   S S   S  S S  S S   S  S S   S
|-14p9h12p9------14p9----------------------------|
|-----------h12-------h12-14p9h12p9-----14p9-----|
|-----------------------------------h11------h11-|
|------------------------------------------------|
|------------------------------------------------|
|------------------------------------------------|
|------------------------------------------------|
|
|  E    E     H.
|------------------------------------------------|
|------------------------------------------------|
|------------------------------------------------|
|------------------------------------------------|
|------------------------------------------------|
|--5----4-----5----------------------------------|
|--3----2-----3----------------------------------|


                                                    E5
   T     T             T         T      T             T        T     T       T    T
                                                                             |-------7-------|
   T  T  T T  T T   T  T T   T   T  T   T   T T   T   T T   T  T  T  T  T T  S S  S S  S S   S
|-14p=9-14-9h12p9-----14p9-----------------------------------------------------------------------||
|-----------------h12------h12-h14-12-h14-h12-9-----h14-9----------------------------------------||
|-----------------------------------------------h11-------h11-13p11-13p11p9-13p9-13p9h11p9------o||
|------------------------------------------------------------------------------------------h11---||
|-----------------------------------------------------------------------------------------------o||
|------------------------------------------------------------------------------------------------||
|------------------------------------------------------------------------------------------------||
|
| +H                                                  H
|------------------------------------------------------------------------------------------------||
|------------------------------------------------------------------------------------------------||
|-----------------------------------------------------------------------------------------------o||
|------------------------------------------------------------------------------------------------||
|-----------------------------------------------------------------------------------------------o||
|-(5)-------------------------------------------------7------------------------------------------||
|-(3)-------------------------------------------------5------------------------------------------||


  2.
  D5   C#5  D5
   T             T        T              T
   S S  S S   S  S S   S  S S  S S   S   S S   S
|-14p9h12p9-----14p9-----------------------------|
|-----------h12------h12-14p9h12p9------14p9-----|
|----------------------------------h11-------h11-|
|------------------------------------------------|
|------------------------------------------------|
|------------------------------------------------|
|------------------------------------------------|
|
|  E    E     H                     +Q
|------------------------------------------------|
|------------------------------------------------|
|------------------------------------------------|
|------------------------------------------------|
|------------------------------------------------|
|--5----4-----5---------------------(5)----------|
|--3----2-----3---------------------(3)----------|


  F5
   T    T             T         T      T           T
   T T  T T  T T   T  T T   T   T  T   T   T T  T  S a  Q..
|-14p9-14-9h12p9-----14p9--------------------------------------|
|----------------h12------h12-h14-12-h14-h12-9----14-9s14------|
|----------------------------------------------12--------------|
|--------------------------------------------------------------|
|--------------------------------------------------------------|
|--------------------------------------------------------------|
|--------------------------------------------------------------|
|
|  H                                               q        Q
|--------------------------------------------------------------|
|--------------------------------------------------------------|
|--------------------------------------------------------------|
|--------------------------------------------------------------|
|--------------------------------------------------------------|
|--8-----------------------------------------------8-----------|
|--6-----------------------------------------------6-----------|


    N.C.
     S  S  S  S  S  S  S  S  S  S  S  S  S  S  S  S
||--------------------------------------------------|
||--------------------17----------------19----------|
||o-20-14-17-20-17-14----14-17-20-17-14----14-17-20-|
||--------------------------------------------------|
||o-------------------------------------------------|
||--------------------------------------------------|
||--------------------------------------------------|
|
|    H                       H
||--------------------------------------------------|
||--------------------------------------------------|
||o-------------------------------------------------|
||--------------------------------------------------|
||o--2----------------------------------------------|
||---------------------------5----------------------|
||--------------------------------------------------|


   S  S  S  S  S  S  S  S  S  S  S  S  S  S  S  S
|-------17----------------20----------------19----|
|-------------------------------------------------|
|-17-14----14-17-20-17-14----14-17-20-17-14----14-|
|-------------------------------------------------|
|-------------------------------------------------|
|-------------------------------------------------|
|-------------------------------------------------|
|
|  H                       H
|-------------------------------------------------|
|-------------------------------------------------|
|-------------------------------------------------|
|-------------------------------------------------|
|--3----------------------------------------------|
|--------------------------3----------------------|
|-------------------------------------------------|


   S  S  S  S  S  S  S  S  S  S  S  S  S  S  S  S
|-------------17----------------------------------|
|-------------------------------20----------------|
|-17-20-17-14----14-17-20-17-14----14-17-20-17-14-|
|-------------------------------------------------|
|-------------------------------------------------|
|-------------------------------------------------|
|-------------------------------------------------|
|
|  H                       H
|-------------------------------------------------|
|-------------------------------------------------|
|-------------------------------------------------|
|-------------------------------------------------|
|--2-----------------------0----------------------|
|-------------------------------------------------|
|-------------------------------------------------|


                     ~~~~~~~
   S  S  S  S  S  S  E  +H
|-------------------------------||
|-19----------------16-(16)-----||
|----14-17-20-17-14------------o||
|-------------------------------||
|------------------------------o||
|-------------------------------||
|-------------------------------||
|
|  H                     H
|-------------------------------||
|-------------------------------||
|------------------------------o||
|-------------------------------||
|--3---------------------6-----o||
|-------------------------------||
|-------------------------------||


  Gtr III
   S  S  S  S  S  S  S  S  S  S  S  S  S  S  S  S
|-14-11-------11----------------------------------|
|-------13-------13-------13-10-------10----------|
|----------14-------14-11-------11-------11-------|
|----------------------------------13-------13-10-|
|-------------------------------------------------|
|-------------------------------------------------|
|-------------------------------------------------|
|
| Gtr IV
|  S  S  S  S  S  S  S  S  S  S  S  S  S  S  S  S
|-17-14-------14----------------------------------|
|-------16-------16-------16-13-------13----------|
|----------17-------17-14-------14-------14-------|
|----------------------------------16-------16-13-|
|-------------------------------------------------|
|-------------------------------------------------|
|-------------------------------------------------|
|
| Gtrs I, II
|  H                       H
|-------------------------------------------------|
|-------------------------------------------------|
|-------------------------------------------------|
|-------------------------------------------------|
|--2-----------------------0----------------------|
|-------------------------------------------------|
|-------------------------------------------------|


   S  S  S  S  S  S  S  S  S  S  S  S  S  S  S  S
|-------------------------------------------------|
|-13-10-------10----------------------------------|
|-------11-------11-------11--8--------8----------|
|----------13-------13-10-------10-------10-------|
|----------------------------------12-------12--9-|
|-------------------------------------------------|
|-------------------------------------------------|
|
|  S  S  S  S  S  S  S  S  S  S  S  S  S  S  S  S
|-------------------------------------------------|
|-16-13-------13----------------------------------|
|-------14-------14-------14-11-------11----------|
|----------16-------16-13-------13-------13-------|
|----------------------------------15-------15-12-|
|-------------------------------------------------|
|-------------------------------------------------|
|
|  H                       H
|-------------------------------------------------|
|-------------------------------------------------|
|-------------------------------------------------|
|-------------------------------------------------|
|--3----------------------------------------------|
|--------------------------3----------------------|
|-------------------------------------------------|


                                                                         ~~~
   S  S  S  S  S  S  S  S  S  S  S  S  S  S  S  S    S S  S S S  S S  S  H
|-------------------------------------------------|----------------------------|
|-------------------------------------------------|----------------------------|
|-11--8--------8----------------------------------|----------------------------|
|-------10-------10-------10--7--------7----------|----------------------------|
|----------12-------12--9--------9--------9-------|--9-6------6----------------|
|----------------------------------11-------11--8-|-------8-5----8-5--8-[5]----|
|-------------------------------------------------|----------------------------|
|
|                                                                        ~~~
|  S  S  S  S  S  S  S  S  S  S  S  S  S  S  S  S    S S  S S S  S S  S  H
|-------------------------------------------------|----------------------------|
|-------------------------------------------------|----------------------------|
|-14-11-------11----------------------------------|----------------------------|
|-------13-------13-------13-10-------10----------|----------------------------|
|----------15-------15-12-------12-------12-------|-12-9------9----------------|
|----------------------------------14-------14-11-|------11-8---11-8-11-[8]----|
|-------------------------------------------------|----------------------------|
|
|  H                       H                         H                   H
|-------------------------------------------------|----------------------------|
|-------------------------------------------------|----------------------------|
|-------------------------------------------------|----------------------------|
|-------------------------------------------------|----------------------------|
|--2-----------------------0----------------------|--3-------------------6-----|
|-------------------------------------------------|----------------------------|
|-------------------------------------------------|----------------------------|


  Gtr III
   S  S  S  S  S  S  S  S  S  S  S  S  S  S  S  S
|-------------------------------------------------|
|-------------------17----------------19----------|
|-20-14-17-20-17-14----14-17-20-17-14----14-17-20-|
|-------------------------------------------------|
|-------------------------------------------------|
|-------------------------------------------------|
|-------------------------------------------------|
|
| Gtrs I, II
|  H                       H
|-------------------------------------------------|
|-------------------------------------------------|
|-------------------------------------------------|
|-------------------------------------------------|
|--2-----------------------0----------------------|
|-------------------------------------------------|
|-------------------------------------------------|


   S  S  S  S  S  S  S  S  S  S  S  S  S  S  S  S
|-------17----------------20----------------19----|
|-------------------------------------------------|
|-17-14----14-17-20-17-14----14-17-20-17-14----14-|
|-------------------------------------------------|
|-------------------------------------------------|
|-------------------------------------------------|
|-------------------------------------------------|
|
|  H                       H
|-------------------------------------------------|
|-------------------------------------------------|
|-------------------------------------------------|
|-------------------------------------------------|
|--3----------------------------------------------|
|--------------------------3----------------------|
|-------------------------------------------------|


   S  S  S  S  S  S  S  S  S  S  S  S  S  S  S  S
|-------------17----------------------------------|
|-------------------------------20----------------|
|-17-20-17-14----14-17-20-17-14----14-17-20-17-14-|
|-------------------------------------------------|
|-------------------------------------------------|
|-------------------------------------------------|
|-------------------------------------------------|
|
|  H                       H
|-------------------------------------------------|
|-------------------------------------------------|
|-------------------------------------------------|
|-------------------------------------------------|
|--2-----------------------0----------------------|
|-------------------------------------------------|
|-------------------------------------------------|


                     ~~~~~~~
   S  S  S  S  S  S  E  +H
|-------------------19-(19)----|
|-19---------------------------|
|----14-17-20-17-14------------|
|------------------------------|
|------------------------------|
|------------------------------|
|------------------------------|
|
|  H                     H
|------------------------------|
|------------------------------|
|------------------------------|
|------------------------------|
|--3---------------------6-----|
|------------------------------|
|------------------------------|


  E5   D#5   N.C.      D#5    D5 C#5
  ~~~~~~~~~~~          ~~~~~~~~~~~~
  Q.   E +E  E E E   E E +Q   Q  Q
|------------------|----------------||
|------------------|----------------||
|-9----8-(8)-x-x-x-|-x-8-(8)--7--6--||
|------------x-x-x-|-x--------------||
|------------------|----------------||
|------------------|----------------||
|------------------|----------------||
|
| Q.   E +E  E E E   E E +Q   Q  Q
|------------------|----------------||
|------------------|----------------||
|------------------|----------------||
|------------------|----------------||
|-7----6-(6)-x-x-x-|-x-6-(6)--5--4--||
|-7----6-(6)-x-x-x-|-x-6-(6)--5--4--||
|-5----4-(4)-x-x-x-|-x-4-(4)--3--2--||


   Chorus
    C#6                                         F/C
    Gtr I
     E     E     Q           +E      E     E     E
||----------------------------------------------------|
||----------------------------------------------------|
||o-------------10----------(10)----------------------|
||---------8-------------------------8----------------|
||o---------------------------------------------------|
||---9-------------------------------------9-----8----|
||----------------------------------------------------|
|
|   Gtr II
|    S  S  S  S  S  S  S  S   S   S  S  S  S  S  S  S
||----------------------------------------------------|
||----------------------------------------------------|
||o-10-10-10-10-10-10-10-10--10--10-10-10-10-10-10-10-|
||---8--8--8--8--8--8--8--8---8---8--8--8--8--8--7--7-|
||o---------------------------------------------------|
||---9--9--9--9--9--9--9--9---9---9--9--9--9--9--8--8-|
||----------------------------------------------------|


                          F7/C
   E     E     E     E    Q       E   E
|-----------------------------------------|
|-----------------------------------------|
|-------10----------------8---------------|
|--7-----------7------------------7-------|
|-----------------------------------------|
|--------------------8----------------8---|
|-----------------------------------------|
|
|  S  S  S  S  S  S  S  S S S S S S S S S
|-----------------------------------------|
|-----------------------------------------|
|-10-10-10-10-10-10-10-10-8-8-8-8-8-8-8-8-|
|--7--7--7--7--7--7--7--7-7-7-7-7-7-7-7-7-|
|-----------------------------------------|
|--8--8--8--8--8--8--8--8-8-8-8-8-8-8-8-8-|
|-----------------------------------------|


  B6                            Eb/Bb                 Eb7/Bb
  E   E   Q       +E    E   E   E     E   E   E   E   Q       E   E
|-----------------------------------|-----------------------------------||
|-----------------------------------|-----------------------------------||
|---------8-------(8)---------------|-----8-----------6----------------o||
|-----6-----------------6-----------|-5-------5---------------5---------||
|-----------------------------------|----------------------------------o||
|-7-------------------------7---6---|-------------6---------------6-----||
|-----------------------------------|-----------------------------------||
|
| S S S S S S S S  S  S S S S S S S   S S S S S S S S S S S S S S S S
|-----------------------------------|-----------------------------------||
|-----------------------------------|-----------------------------------||
|-8-8-8-8-8-8-8-8--8--8-8-8-8-8-8-8-|-8-8-8-8-8-8-8-8-6-6-6-6-6-6-6-6--o||
|-6-6-6-6-6-6-6-6--6--6-6-6-6-6-5-5-|-5-5-5-5-5-5-5-5-5-5-5-5-5-5-5-5---||
|-----------------------------------|----------------------------------o||
|-7-7-7-7-7-7-7-7--7--7-7-7-7-7-6-6-|-6-6-6-6-6-6-6-6-6-6-6-6-6-6-6-6---||
|-----------------------------------|-----------------------------------||


 Lead - Smyth
  D#5       E5    D#E5D#5              F#5    D#E5D#5
  Gtr III
   TP     TP TP        TP    TP    TP    TP
   Q.     E +Q.        E    +Q     Q    +Q.       E
|------------------------|--------------------------|
|------------------------|--------------------------|
|-12------8-(8)-------10-|-(10)---------------------|
|------------------------|--------11---(11)-------8-|
|------------------------|--------------------------|
|------------------------|--------------------------|
|------------------------|--------------------------|
|
| Gtrs I, II
|  PM   PM----------|        PM    PM    PM-----|
|  E  E E E  S  S E E  E     E  E  E E   S  S E E E
|------------------------|--------------------------|
|------------------------|--------------------------|
|------------------------|--------------------------|
|------------------------|--------------------------|
|------------------------|--------------------------|
|-----6---6--7--7-6-7--6-|------6----6---9--9-6-7-6-|
|--4--4-4-4--5--5-4-5--4-|---4--4--4-4---7--7-4-5-4-|


            E5    D#5   E5    D#5
                               ~~
  +H         S  S  S  S  S  S  E
|--------------------------------|
|--------------------------------|
|--------------------------------|
|-(8)----------------------------|
|--------------------10-12-13-12-|
|-----------10-12-13-------------|
|--------------------------------|
|
|  PM   PM      PM------|
|  E  E E E  S  S  E     E     E
|--------------------------------|
|--------------------------------|
|--------------------------------|
|--------------------------------|
|--------------------------------|
|-----6---6--7--7--6-----7-----6-|
|--4--4-4-4--5--5--4-----5-----4-|


  D#5              F#5         D#5
    ~~~~
   +E   E  +E   E  +H
|--------------------------------|
|--------------------------------|
|--------------------------------|
|--------------------------------|
|-(12)---------------------------|
|------11-(11)-[9]-(9)-----------|
|--------------------------------|
|
|   PM      PM      PM-------|
|   E   E   E   E   S  S S S E E
|--------------------------------|
|--------------------------------|
|--------------------------------|
|--------------------------------|
|--------------------------------|
|-------6-------6---9--9-9-9-9-6-|
|---4---4---4---4---7--7-7-7-7-4-|


                                      E5       D#5   E5  D#5
   |------6-------|  |------6-------| |-----5------|
   S  S  S  S  S  S  S  S  S  S  S  S S S    S   S S S S S S
|--------------------------------------------------------------|
|--------------------------------------------------------------|
|-------------------------------------7h8h==10p==8p7-----------|
|----------------------------------------------------8-6-5-6/--|
|-------------------12h13p12p10h12h13--------------------------|
|-11h13p11p10h11h13--------------------------------------------|
|--------------------------------------------------------------|
|
|  PM                PM               PM-------------|
|  E        E        E        E       S   S    E     E   E
|--------------------------------------------------------------|
|--------------------------------------------------------------|
|--------------------------------------------------------------|
|--------------------------------------------------------------|
|--------------------------------------------------------------|
|-----------6-----------------6-------7---7----6-----7---6-----|
|--4--------4--------4--------4-------5---5----4-----5---4-----|


  D#5                                 F#5        D#5     F#5      D#5
   |------6-------|  |------6-------|  |-------6-------|  |------6-------|
   S  S  S  S  S  S  S  S  S  S  S  S  S  S    S S  S  S  S  S  S  S  S  S
|--------------------------------------------------------------------------|
|--------------------------------------------------------10h11p10----10h11-|
|-------------------12h14h15p14p12p11------------9h11h12----------11-------|
|-13h15p13p12h13h15-------------------14p13p==11---------------------------|
|--------------------------------------------------------------------------|
|--------------------------------------------------------------------------|
|--------------------------------------------------------------------------|
|
|  PM                PM                PM----------------|
|  E        E        E        E        S    S    E        E        E
|--------------------------------------------------------------------------|
|--------------------------------------------------------------------------|
|--------------------------------------------------------------------------|
|--------------------------------------------------------------------------|
|--------------------------------------------------------------------------|
|-----------6-----------------6--------9----9----6--------9--------6-------|
|--4--------4--------4--------4--------7----7----4--------7--------4-------|


                                    E5         D#5      E5       D#5
   |------5------|  |------5------|  |-------6--------|  |------5------|
   S  S  S    S  S  S  S  S    S  S  S  S    S  S  S  S  S  S  S    S  S
|------------------12---------------12h14p==12----12h14------------14h15--|
|-14h15p12h==14h15----15p12h==14h15------------15-------17p15h17----------|
|-------------------------------------------------------------------------|
|-------------------------------------------------------------------------|
|-------------------------------------------------------------------------|
|-------------------------------------------------------------------------|
|-------------------------------------------------------------------------|
|
|  PM               PM               PM-----------------|
|  E       E        E       E        S    S     E        E       E
|-------------------------------------------------------------------------|
|-------------------------------------------------------------------------|
|-------------------------------------------------------------------------|
|-------------------------------------------------------------------------|
|-------------------------------------------------------------------------|
|----------6----------------6--------7----7-----6--------7-------6--------|
|--4-------4--------4-------4--------5----5-----4--------5-------4--------|


  D#5                                 F#5               C#5
                                                 TP       ~~~~~~~~~~
   |------6-------|  |------6-------|
   S  S  S  S  S  S  S  S  S  S  S  S  E        +Q        E
|-14----------16----------16h17p16----19b21====(19)------19-------||
|----16h17h19----19p17h19----------19-------------------(19)pb21==||
|-----------------------------------------------------------------||
|-----------------------------------------------------------------||
|-----------------------------------------------------------------||
|-----------------------------------------------------------------||
|-----------------------------------------------------------------||
|
|                                      PM-------------|
|  E        E        E        E        S     S   S  S E   E
|-----------------------------------------------------------------||
|-----------------------------------------------------------------||
|-----------------------------------------------------------------||
|-----------------------------------------------------------------||
|-----------------------------------------------------------------||
|-----------6-----------------6--------9-----9---9--9-9---4-------||
|--4--------4--------4--------4--------7-----7---7--7-7---2-------||


 Verse
              D5  C#D5C#5
    >
 ~~~~~~~
   +W
|-(19)r------------------|
|-(19)r------------------|
|------------------------|
|------------------------|
|------------------------|
|------------------------|
|------------------------|
|
|           PM------|
|   E   E E E S S E E E
|------------------------|
|-----------------
1 comment total.
0 reply
deaththrashcore wrote on June 25 2008, 10:22 pm

Awesome!

I want to post or [tab]
guest
You may want to rate the tab now too:
select rating
Please do not post tabs as comments. Select "correction" instead!