Oops, an error
Loading. Please wait.

My Acid Words Tab

5,263 views 24 this week
1 commentread comment
1 2 3 4 5
excellent!
x 2
Autoscroll
+/-
esc
set tempo
stop
Contributor
Difficulty
advanced
WARNING: You are trying to view
                                    content from Ultimate-Guitar.com
                                    in an unauthorized application,
                                    which is prohibited.

                                    Please use an official Ultimate
                                    Guitar Tabs application for iPhone,
                                    iPad or Android to access legitimate
                                    chords, guitar, bass, and drum tabs
                                    from Ultimate-Guitar.com database.

                                    Type "ultimate guitar tabs" in Apple
                                    App Store's or Android Market's
                                    search to find the application.
Gtr I (Bb Eb Ab Db Gb Bb Eb) - 'Untitled'
Gtr II (Bb Eb Ab Db Gb Bb Eb) - 'Untitled'
Gtr III (Bb Eb Ab Db Gb Bb Eb) - 'Untitled'
Gtr IV (Bb Eb Ab Db Gb Bb Eb) - 'Untitled'
Gtr V (Bb Eb Ab Db Gb Bb Eb) - 'Untitled'


 Intro
  Q=108
  B5   B5/F#  A#5N.C.               B5   B5/F#  F5B5C#5D5E5   D5    C#5
 4/4
  Gtr I
  H    H      q   E E E E E   +E    H    H      q    E E E.   S E     +E
|-----------|---------------------|-----------|---------------------------|
|-----------|-----0-0-0-0-0---(0)-|-----------|------0-0-0----0-0-----(0)-|
|-----------|----/4-4-4-4-3b4r(3)-|-----------|-----/4-4-4----4-3b4r==(3)-|
|-----------|---------------------|-----------|---------------------------|
|-2----9----|-8-------------------|-2----9----|-8-------------------------|
|-2----7----|-6-------------------|-2----7----|-8-------------------------|
|-0----7----|-6-------------------|-0----7----|-6-------------------------|
|
| Gtr II
|                                                 PM----------------|
|                                                        |----3-----|
| H    H      q   E E E E E   +E    H    H      E E  E E Q  Q       Q
|-----------|---------------------|-----------|---------------------------|
|-----------|-----0-0-0-0-0---(0)-|-----------|---------------------------|
|-----------|----/4-4-4-4-3b4r(3)-|-----------|---------------------------|
|-----------|---------------------|-----------|---------------------------|
|-2----9----|-8-------------------|-2----9----|-8-------------------------|
|-2----7----|-6-------------------|-2----7----|-8-2--4-5-7--5-------4-----|
|-0----7----|-6-------------------|-0----7----|-6-0--2-3-5--3-------2-----|


  B5   B5/F#  A#5/E#N.C.            B5   B5/F#  F5B5C#5D5E5 F5      F#5
  H    H      q   E E E E E   +E    H    H      q    E E E.   S E     +E
|-----------|---------------------|-----------|----------------------------|
|-----------|-----0-0-0-0-0---(0)-|-----------|------0-0-0----0-0-----(0)--|
|-----------|----/4-4-4-4-3b4r(3)-|-----------|-----/4-4-4----4-3b4r==(3)--|
|-----------|---------------------|-----------|----------------------------|
|-2----9----|-8-------------------|-2----9----|-8--------------------------|
|-2----7----|-6-------------------|-2----7----|-8--------------------------|
|-0----7----|-6-------------------|-0----7----|-6--------------------------|
|
|                                                 PM----------------|
|                                                        |----3-----|
| H    H      q   E E E E E   +E    H    H      E E  E E Q  Q       Q
|-----------|---------------------|-----------|----------------------------|
|-----------|-----0-0-0-0-0---(0)-|-----------|----------------------------|
|-----------|----/4-4-4-4-3b4r(3)-|-----------|----------------------------|
|-----------|---------------------|-----------|----------------------------|
|-2----9----|-8-------------------|-2----9----|-8--------------------------|
|-2----7----|-6-------------------|-2----7----|-8-2--4-5-7--8-------9------|
|-0----7----|-6-------------------|-0----7----|-6-0--2-3-5--6-------7------|


 Pre Verse
  Q=216
  N.C.
  Gtrs I, II
     PM|    PM|           PM|
   E E E  E E E  E  E   E E E E E E E E
|---------------------|-----------------|
|---------------------|-----------------|
|---------------------|-----------------|
|---------------------|-----------------|
|---------------------|-----------------|
|-10-----10-----10-10-|-9-----9-----9-9-|
|----0-0----0-0-------|---0-0---0-0-----|


     PM|    PM|
   E E E  E E E  E  E    E  E  E E  E E E E
|---------------------|----------------------|
|---------------------|----------------------|
|---------------------|----------------------|
|---------------------|----------------------|
|---------------------|------------10--------|
|-12-----12-----12-12-|----12-------------9--|
|----0-0----0-0-------|-10----10-8----8-7----|


     PM|    PM|           PM|   PM|
   E E E  E E E  E  E   E E E E E E E E
|---------------------|-----------------|
|---------------------|-----------------|
|---------------------|-----------------|
|---------------------|-----------------|
|---------------------|-----------------|
|-10-----10-----10-10-|-9-----9-----9-9-|
|----0-0----0-0-------|---0-0---0-0-----|


  PM  PM|   PM  PM
  E E E E E E E E   E E E E E E S S S S
|-----------------|----------------------|
|-----------------|----------------------|
|-----------------|----------------------|
|-----------------|----------------------|
|---5-----5---4---|---1------------------|
|-3---3-3---3---3-|---------3---5-6-6-6--|
|-----------------|-4---4-1---1----------|


  Gtr I
     PM|    PM|           PM|   PM|
   E E E  E E E  E  E   E E E E E E E E
|---------------------|-----------------|
|---------------------|-----------------|
|---------------------|-----------------|
|---------------------|-----------------|
|---------------------|-----------------|
|-10-----10-----10-10-|-9-----9-----9-9-|
|----0-0----0-0-------|---0-0---0-0-----|
|
| Gtr II
|    PM|    PM|           PM|   PM|
|  E E E  E E E  E  E   E E E E E E E E
|---------------------|-----------------|
|---------------------|-----------------|
|---------------------|-----------------|
|---------------------|-----------------|
|--9------9------9--9-|-7-----7-----7-7-|
|---------------------|-----------------|
|----0-0----0-0-------|---0-0---0-0-----|


     PM|    PM|
   E E E  E E E  E  E    E  E  E E  E E E E
|---------------------|----------------------|
|---------------------|----------------------|
|---------------------|----------------------|
|---------------------|----------------------|
|---------------------|------------10--------|
|-12-----12-----12-12-|----12-------------9--|
|----0-0----0-0-------|-10----10-8----8-7----|
|
|    PM|    PM|
|  E E E  E E E  E  E    E  E  E E  E E E E
|---------------------|----------------------|
|---------------------|----------------------|
|---------------------|----------------------|
|---------------------|----------------------|
|-10-----10-----10-10-|------------10--------|
|---------------------|----12-------------9--|
|----0-0----0-0-------|-10----10-8----8-7----|


     PM|    PM|           PM|   PM|
   E E E  E E E  E  E   E E E E E E E E    Q.    E  +Q   Q     Q.   E +Q   Q
|---------------------|-----------------|-------------------|------------------|
|---------------------|-----------------|-------------------|------------------|
|---------------------|-----------------|-------------------|------------------|
|---------------------|-----------------|-12----11-(11)--9--|------------------|
|---------------------|-----------------|-------------------|-10----9-(9)--7---|
|-10-----10-----10-10-|-9-----9-----9-9-|-10-----9--(9)--7--|------------------|
|----0-0----0-0-------|---0-0---0-0-----|-------------------|--8----7-(7)--5---|
|
|    PM|    PM|           PM|   PM|
|  E E E  E E E  E  E   E E E E E E E E    Q.    E  +Q   Q     Q.   E +Q   Q
|---------------------|-----------------|-------------------|------------------|
|---------------------|-----------------|-------------------|------------------|
|---------------------|-----------------|-------------------|------------------|
|---------------------|-----------------|-12----11-(11)--9--|------------------|
|--9------9------9--9-|-7-----7-----7-7-|-------------------|-10----9-(9)--7---|
|---------------------|-----------------|-10-----9--(9)--7--|------------------|
|----0-0----0-0-------|---0-0---0-0-----|-------------------|--8----7-(7)--5---|


 Verse
  Q=108
  B5           N.C.
  Gtrs I, II
                     ~                            ~
  q  S S S S S S S S Q    S S S S S S S S S S S S Q
|-----------------------|----------------------------|
|-----------------------|----------------------------|
|-----------------------|----------------------------|
|-----------------------|----------------------------|
|-----------------------|----------------------------|
|-2--2-2---2------------|----------------------------|
|-0--0-0---0---0-8-7-5--|-0-0-0-0-1-0---0---0-7-5-4--|


                                3/4
                          ~~            ~~~~~~~
  S S S S S S S S S S S S E. S   S S S  S  +S  S S S S S S S
|------------------------------|-----------------------------|
|------------------------------|-----------------------------|
|------------------------------|-----------------------------|
|------------------------------|-----------------------------|
|------------------------------|-----------------------------|
|------------------------------|-------[5]-(5)---------------|
|-0-0-0-0-1-0---0---0-8-7-5--0-|-4-5-7---------7-5-4-0-4-5-7-|


 4/4
    PM--|                 ~                            ~
  S S S S S S S S S S S S Q    S S S S S S S S S S S S Q
|----------------------------|----------------------------|
|----------------------------|----------------------------|
|----------------------------|----------------------------|
|----------------------------|----------------------------|
|----------------------------|----------------------------|
|----------------------------|----------------------------|
|-0-0-0-0-1-0---0---0-8-7-5--|-0-0-0-0-1-0---0---0-7-5-4--|


                                3/4
    PM--|                 ~~            ~~~~~~~
  S S S S S S S S S S S S E. S   S S S  S  +S  S S S S S S S
|------------------------------|-----------------------------|
|------------------------------|-----------------------------|
|------------------------------|-----------------------------|
|------------------------------|-----------------------------|
|------------------------------|-----------------------------|
|------------------------------|-------[5]-(5)-------------7-|
|-0-0-0-0-1-0---0---0-8-7-5--0-|-4-5-7---------7-5-4-0-4-5---|


 4/4
    PM--|                 ~                            ~
  S S S S S S S S S S S S Q    S S S S S S S S S S S S Q
|----------------------------|----------------------------|
|----------------------------|----------------------------|
|----------------------------|----------------------------|
|----------------------------|----------------------------|
|----------------------------|----------------------------|
|----------------------------|----------------------------|
|-0-0-0-0-1-0---0---0-8-7-5--|-0-0-0-0-1-0---0---0-7-5-4--|


                              3/4
    PM--|                 ~           ~~~~~~~
  S S S S S S S S S S S S Q    S S S  S  +S  S S S S S S S
|----------------------------|-----------------------------|
|----------------------------|-----------------------------|
|----------------------------|-----------------------------|
|----------------------------|-----------------------------|
|----------------------------|-----------------------------|
|----------------------------|-------[5]-(5)-------------7-|
|-0-0-0-0-1-0---0---0-8-7-5--|-4-5-7---------7-5-4-0-4-5---|


 Pre Chorus
  $
  N.C.
 4/4
     PM|    PM|    PM|    PM|
   S S S  S S S  S S S  S S S  S  S  S  S
|-----------------------------------------|
|-----------------------------------------|
|-----------------------------------------|
|-12-----12-----12-----12-----12-12-12-12-|
|-----------------------------------------|
|-10-----10-----10-----10-----10-10-10-10-|
|----0-0----0-0----0-0----0-0-------------|


        PM   PM|    PM|    PM|
   S  S S  S S S  S S S  S S S  S  S  S  S
|------------------------------------------|
|------------------------------------------|
|------------------------------------------|
|-12s11---11-----11-----11-----11-11-11-11-|
|------------------------------------------|
|-10s=9----9------9------9------9--9--9--9-|
|-------0----0-0----0-0----0-0-------------|


       PM  PM|   PM|   PM|               PM  PM|   PM|
   S S S S S S S S S S S S S S S S   S S S S S S S S S E. E E
|----------------------------------|---------------------------|
|----------------------------------|---------------------------|
|----------------------------------|---------------------------|
|-11s8---8-----8-----8-----8-8-8-8-|-8s7---7-----7-------------|
|----------------------------------|-------------------5--4----|
|--9s6---6-----6-----6-----6-6-6-6-|-6s5---5-----5-----3--2-5--|
|------0---0-0---0-0---0-0---------|-----0---0-0---0-0------3--|


  Gtr I
     PM|    PM|    PM|    PM|
   S S S  S S S  S S S  S S S  S  S  S  S
|-----------------------------------------|
|-----------------------------------------|
|-----------------------------------------|
|-12-----12-----12-----12-----12-12-12-12-|
|-----------------------------------------|
|-10-----10-----10-----10-----10-10-10-10-|
|----0-0----0-0----0-0----0-0-------------|
|
| Gtr II
|  S S S  S S S  S S S  S S S  S  S  S  S
|-----------------------------------------|
|-----------------------------------------|
|-----------------------------------------|
|-12-----12-----12-----12-----12-12-12-12-|
|-----------------------------------------|
|-10-----10-----10-----10-----10-10-10-10-|
|----0-0----0-0----0-0----0-0-------------|


   S  S S  S S S  S S S  S S S  S  S  S  S
|------------------------------------------|
|------------------------------------------|
|------------------------------------------|
|-12s14---14-----14-----14-----14-14-14-14-|
|------------------------------------------|
|-10s12---12-----12-----12-----12-12-12-12-|
|-------0----0-0----0-0----0-0-------------|
|
|  S  S S  S S S  S S S  S S S  S  S  S  S
|------------------------------------------|
|------------------------------------------|
|------------------------------------------|
|-12s11---11-----11-----11-----11-11-11-11-|
|------------------------------------------|
|-10s=9----9------9------9------9--9--9--9-|
|-------0----0-0----0-0----0-0-------------|


                                                                   G5 F#D5
                                                   PM   PM|    PM|
   S  S S  S S S  S S S  S S S  S  S  S  S    S  S S  S S S  S S S E. E E
|------------------------------------------|-------------------------------|
|------------------------------------------|-------------------------------|
|------------------------------------------|-------------------------------|
|-14s17---17-----17-----17-----17-17-17-17-|-17s16---16-----16-------------|
|------------------------------------------|-----------------------5--4----|
|-12s15---15-----15-----15-----15-15-15-15-|-15s14---14-----14-----3--2-5--|
|-------0----0-0----0-0----0-0-------------|-------0----0-0----0-0------3--|
|
|       PM   PM|    PM|    PM|                     PM   PM|    PM|
|  S  S S  S S S  S S S  S S S  S  S  S  S    S  S S  S S S  S S S E. E E
|------------------------------------------|-------------------------------|
|------------------------------------------|-------------------------------|
|------------------------------------------|-------------------------------|
|-11s=8----8------8------8------8--8--8--8-|--8s=7----7------7-------------|
|------------------------------------------|-----------------------5--4----|
|--9s=6----6------6------6------6--6--6--6-|--6s=5----5------5-----3--2-5--|
|-------0----0-0----0-0----0-0-------------|-------0----0-0----0-0------3--|


 Chorus
  C5                  E5   D5                    G5
  Gtr III
  TP                        TP                    TP
  W                         H.                    Q
|------------------------|---------------------------|
|------------------------|---------------------------|
|-9----------------------|-11---------------------7--|
|------------------------|---------------------------|
|-7----------------------|--9---------------------5--|
|------------------------|---------------------------|
|------------------------|---------------------------|
|
| Gtr I
|     PM    PM      PM           PM    PM      PM
| E S S +S  S E +E  E Q     E  S S +S  S E +E  E  Q
|------------------------|---------------------------|
|------------------------|---------------------------|
|------------------------|---------------------------|
|------------------------|---------------------------|
|------------------------|---------------------------|
|-3-0-3-(3)-0-3-(3)-3-7--|--5--0-5-(5)-0-5-(5)-5-10--|
|-1-0-1-(1)-0-1-(1)-1-5--|--3--0-3-(3)-0-3-(3)-3--8--|
|
| Gtr II
|     PM    PM      PM           PM    PM      PM
| E S S +S  S E +E  E Q     E  S S +S  S E +E  E  Q
|------------------------|---------------------------|
|------------------------|---------------------------|
|------------------------|---------------------------|
|------------------------|---------------------------|
|------------------------|---------------------------|
|-3-0-3-(3)-0-3-(3)-3-7--|--5--0-5-(5)-0-5-(5)-5-10--|
|-1-0-1-(1)-0-1-(1)-1-5--|--3--0-3-(3)-0-3-(3)-3--8--|


  E5                   N.C.
   TP                           TP
   H..                          E
|----------------------------------|
|----------------------------------|
|-12---------------------------11--|
|----------------------------------|
|-10----------------------------9--|
|----------------------------------|
|----------------------------------|
|
|              PM
|  E   S S +S  S E +E  E T T S  E
|----------------------------------|
|----------------------------------|
|----------------------------------|
|----------------------------------|
|----------------------7-5h7p5-----|
|--7---0-7-(7)-0-7-(7)----------7--|
|--5---0-5-(5)-0-5-(5)-------------|
|
|              PM
|  E   S S +S  S E +E  E T T S  E
|----------------------------------|
|----------------------------------|
|----------------------------------|
|----------------------------------|
|----------------------------------|
|--7---0-7-(7)-0-7-(7)-8-7h8p7-----|
|--5---0-5-(5)-0-5-(5)----------8--|


   TP        TP      TP     TP  TP TP
   E.        E.      E.     E.  E  E
|------------------------------------|
|------------------------------------|
|-11---------9------11------9--11-12-|
|------------------------------------|
|--9---------7-------9------7---9-10-|
|------------------------------------|
|------------------------------------|
|
|  T T S +S  S  +E   E  +S  E.  E  E
|------------------------------------|
|------------------------------------|
|------------------------------------|
|------------------------------------|
|------------------------------------|
|--5h7p5-(5)---------5--(5)-7--------|
|------------8--(8)-------------0--3-|
|
|  T T S +S  S  +E   E  +S  E.  E  E
|------------------------------------|
|------------------------------------|
|------------------------------------|
|------------------------------------|
|------------------------------------|
|------------------------------------|
|--7h8p7-(7)-5--(5)--7--(7)-8---0--3-|


  C5                  E5   D5                    G5
  TP                        TP                    TP
  W                         H.                    Q
|------------------------|---------------------------|
|------------------------|---------------------------|
|-9----------------------|-11---------------------7--|
|------------------------|---------------------------|
|-7----------------------|--9---------------------5--|
|------------------------|---------------------------|
|------------------------|---------------------------|
|
|     PM    PM      PM           PM    PM      PM
| E S S +S  S E +E  E Q     E  S S +S  S E +E  E  Q
|------------------------|---------------------------|
|------------------------|---------------------------|
|------------------------|---------------------------|
|------------------------|---------------------------|
|------------------------|---------------------------|
|-3-0-3-(3)-0-3-(3)-3-7--|--5--0-5-(5)-0-5-(5)-5-10--|
|-1-0-1-(1)-0-1-(1)-1-5--|--3--0-3-(3)-0-3-(3)-3--8--|
|
|     PM    PM      PM           PM    PM      PM
| E S S +S  S E +E  E Q     E  S S +S  S E +E  E  Q
|------------------------|---------------------------|
|------------------------|---------------------------|
|------------------------|---------------------------|
|------------------------|---------------------------|
|------------------------|---------------------------|
|-3-0-3-(3)-0-3-(3)-3-7--|--5--0-5-(5)-0-5-(5)-5-10--|
|-1-0-1-(1)-0-1-(1)-1-5--|--3--0-3-(3)-0-3-(3)-3--8--|


                                                        To Coda
  E5                  N.C.
   TP                    TP         TP
   H.                    Q          W
|--------------------------------|-------------------------------|
|--------------------------------|-------------------------------|
|-12--------------------14-------|-16----------------------------|
|--------------------------------|-------------------------------|
|-10--------------------12-------|-14----------------------------|
|--------------------------------|-------------------------------|
|--------------------------------|-------------------------------|
|
|             PM
|  E  S S +S  S E +E  E  T T S E    T T S +S  S +E  E +S  E. E E
|--------------------------------|-------------------------------|
|--------------------------------|-------------------------------|
|--------------------------------|-------------------------------|
|--------------------------------|-------------------------------|
|---------------------7--5h7p5---|-------------------------------|
|--7--0-7-(7)-0-7-(7)----------7-|--5h7p5-(5)-------5-(5)-7------|
|--5--0-5-(5)-0-5-(5)------------|------------8-(8)----------0-3-|
|
|             PM
|  E  S S +S  S E +E  E  T T S E    T T S +S  S +E  E +S  E. E E
|--------------------------------|-------------------------------|
|--------------------------------|-------------------------------|
|--------------------------------|-------------------------------|
|--------------------------------|-------------------------------|
|--------------------------------|-------------------------------|
|--7--0-7-(7)-0-7-(7)-8--7h8p7---|-------------------------------|
|--5--0-5-(5)-0-5-(5)----------8-|--7h8p7-(7)-5-(5)-7-(7)-8--0-3-|


 Pre Verse
  Q=216
  N.C.
  Gtrs I, II
     PM|    PM|           PM|   PM|
   E E E  E E E  E  E   E E E E E E E E
|---------------------|-----------------|
|---------------------|-----------------|
|---------------------|-----------------|
|---------------------|-----------------|
|---------------------|-----------------|
|-10-----10-----10-10-|-9-----9-----9-9-|
|----0-0----0-0-------|---0-0---0-0-----|


     PM|    PM|
   E E E  E E E  E  E    E  E  E E  E E E E
|---------------------|----------------------|
|---------------------|----------------------|
|---------------------|----------------------|
|---------------------|----------------------|
|---------------------|------------10--------|
|-12-----12-----12-12-|----12-------------9--|
|----0-0----0-0-------|-10----10-8----8-7----|


     PM|    PM|           PM|   PM|
   E E E  E E E  E  E   E E E E E E E E
|---------------------|-----------------|
|---------------------|-----------------|
|---------------------|-----------------|
|---------------------|-----------------|
|---------------------|-----------------|
|-10-----10-----10-10-|-9-----9-----9-9-|
|----0-0----0-0-------|---0-0---0-0-----|


  PM  PM|   PM  PM
  E E E E E E E E   E E E E E E S S S S
|-----------------|----------------------|
|-----------------|----------------------|
|-----------------|----------------------|
|-----------------|----------------------|
|---5-----5---4---|---1------------------|
|-3---3-3---3---3-|---------3---5-6-6-6--|
|-----------------|-4---4-1---1----------|


  Gtr I
   E E E  E E E  E  E   E E E E E E E E
|---------------------|-----------------|
|---------------------|-----------------|
|---------------------|-----------------|
|---------------------|-----------------|
|---------------------|-----------------|
|-10-----10-----10-10-|-9-----9-----9-9-|
|----0-0----0-0-------|---0-0---0-0-----|
|
| Gtr II
|    PM|    PM|           PM|   PM|
|  E E E  E E E  E  E   E E E E E E E E
|---------------------|-----------------|
|---------------------|-----------------|
|---------------------|-----------------|
|---------------------|-----------------|
|--9------9------9--9-|-7-----7-----7-7-|
|---------------------|-----------------|
|----0-0----0-0-------|---0-0---0-0-----|


   E E E  E E E  E  E    E  E  E E  E E E E
|---------------------|----------------------|
|---------------------|----------------------|
|---------------------|----------------------|
|---------------------|----------------------|
|---------------------|------------10--------|
|-12-----12-----12-12-|----12-------------9--|
|----0-0----0-0-------|-10----10-8----8-7----|
|
|    PM|    PM|
|  E E E  E E E  E  E    E  E  E E  E E E E
|---------------------|----------------------|
|---------------------|----------------------|
|---------------------|----------------------|
|---------------------|----------------------|
|-10-----10-----10-10-|------------10--------|
|---------------------|----12-------------9--|
|----0-0----0-0-------|-10----10-8----8-7----|


                                          G5  F#5 G5F#E5D5  E5  D5  F#E5D5C#5
     PM|    PM|           PM|   PM|       PM------------------------------|
   E E E  E E E  E  E   E E E E E E E E   E E E E E E E E   E E E E E E E E
|---------------------|-----------------|-----------------|------------------|
|---------------------|-----------------|-----------------|------------------|
|---------------------|-----------------|-----------------|------------------|
|---------------------|-----------------|-----------------|------------------|
|---------------------|-----------------|-5-0-4-0-5-4-2---|---------4-2------|
|-10-----10-----10-10-|-9-----9-----9-9-|-3-0-2-0-3-2-0-5-|-7-0-5-0-2-0-5-4--|
|----0-0----0-0-------|---0-0---0-0-----|---------------3-|-5-0-3-0-----3-2--|
|
|    PM|    PM|           PM|   PM|       PM------------------------------|
|  E E E  E E E  E  E   E E E E E E E E   E E E E E E E E   E E E E E E E E
|---------------------|-----------------|-----------------|------------------|
|---------------------|-----------------|-----------------|------------------|
|---------------------|-----------------|-----------------|------------------|
|---------------------|-----------------|-----------------|------------------|
|--9------9------9--9-|-7-----7-----7-7-|-5-0-4-0-5-4-2---|---------4-2------|
|---------------------|-----------------|-3-0-2-0-3-2-0-5-|-7-0-5-0-2-0-5-4--|
|----0-0----0-0-------|---0-0---0-0-----|---------------3-|-5-0-3-0-----3-2--|


 Verse
  Q=108
  B5           N.C.
  Gtrs I, II
                     ~                            ~
  q  S S S S S S S S Q    S S S S S S S S S S S S Q
|-----------------------|----------------------------|
|-----------------------|----------------------------|
|-----------------------|----------------------------|
|-----------------------|----------------------------|
|-----------------------|----------------------------|
|-2--2-2---2------------|----------------------------|
|-0--0-0---0---0-8-7-5--|-0-0-0-0-1p0---0---0-7-5-4--|


                                3/4
    PM--|                 ~~            ~~~~~~~
  S S S S S S S S S S S S E. S   S S S  S  +S  S S S S S S S
|------------------------------|-----------------------------|
|------------------------------|-----------------------------|
|------------------------------|-----------------------------|
|------------------------------|-----------------------------|
|------------------------------|-----------------------------|
|------------------------------|-------[5]-(5)---------------|
|-0-0-0-0-1p0---0---0-8-7-5--0-|-4-5-7---------7-5-4-0-4-5-7-|


 4/4
    PM--|                 ~                            ~
  S S S S S S S S S S S S Q    S S S S S S S S S S S S Q
|----------------------------|----------------------------|
|----------------------------|----------------------------|
|----------------------------|----------------------------|
|----------------------------|----------------------------|
|----------------------------|----------------------------|
|----------------------------|----------------------------|
|-0-0-0-0-1p0---0---0-8-7-5--|-0-0-0-0-1p0---0---0-7-5-4--|


                                                 D.S. al Coda
                                3/4
    PM--|                 ~~            ~~~~~~~
  S S S S S S S S S S S S E. S   S S S  S  +S  S S S S S S S
|------------------------------|-------------------------------|
|------------------------------|-------------------------------|
|------------------------------|-------------------------------|
|------------------------------|-------------------------------|
|------------------------------|-------------------------------|
|------------------------------|-------[5]-(5)-------------7---|
|-0-0-0-0-1p0---0---0-8-7-5--0-|-4-5-7---------7-5-4-0-4-5-----|


 Bridge
  &
  C5                 D5                  C#5                C5
 4/4
  Gtr III
  W                   W                  H        H         H        E  E  E E
|------------------|-------------------|------------------|--------------------|
|------------------|-------------------|---------12-------|---------12s10-10s8-|
|------------------|-------------------|------------------|--------------------|
|------------------|-------------------|------------------|--------------------|
|------------------|-------------------|------------------|--------------------|
|------------------|-------------------|------------------|--------------------|
|------------------|-------------------|------------------|--------------------|
|
| Gtr IV
| E E E E  E E E E    E E E E  E E E E   E E E E  E E E E   E E E E  E  E  E E
|-------0--------0-|--------0--------0-|-------0--------0-|-------0----------0-|
|-----0--------0---|------0--------0---|-----0--------0---|-----0----------0---|
|---9--------9-----|----9--------9-----|---9--------9-----|---9---------9------|
|------------------|-------------------|------------------|--------------------|
|---------10-------|----------12-------|---------11-------|---------10---------|
|-8----------------|-10----------------|-9----------------|-8------------------|
|------------------|-------------------|------------------|--------------------|
|
| Gtr I
| W                   W                  W                  W
|------------------|-------------------|------------------|--------------------|
|------------------|-------------------|------------------|--------------------|
|-5----------------|--7----------------|-6----------------|-5------------------|
|-5----------------|--7----------------|-6----------------|-5------------------|
|-3----------------|--5----------------|-4----------------|-3------------------|
|------------------|-------------------|------------------|--------------------|
|------------------|-------------------|------------------|--------------------|


  C5                     D5
   E  E  H.               H        E      +Q.
|----------------------|---------------------------|
|-10s12-12-------------|----------12b13==(12)r-----|
|----------------------|---------------------------|
|----------------------|---------------------------|
|----------------------|---------------------------|
|----------------------|---------------------------|
|----------------------|---------------------------|
|
|  E  E  E  E  E E E E    E E E E  E       E   E E
|-----------0--------0-|--------0----------------0-|
|--------0---------0---|------0----------------0---|
|-----9----------9-----|----9--------------9-------|
|----------------------|---------------------------|
|-------------10-------|----------12---------------|
|--8-------------------|-10------------------------|
|----------------------|---------------------------|
|
|  W                      W
|----------------------|---------------------------|
|----------------------|---------------------------|
|--5-------------------|--7------------------------|
|--5-------------------|--7------------------------|
|--3-------------------|--5------------------------|
|----------------------|---------------------------|
|----------------------|---------------------------|


  C#5                   C5
   +H         H          H        E  E  E  E
|---------------------|----------------------|
|-(12)-------12-------|-12-------12s15-15s17-|
|---------------------|----------------------|
|---------------------|----------------------|
|---------------------|----------------------|
|---------------------|----------------------|
|---------------------|----------------------|
|
|   E  E E E  E E E E    E E E E  E  E  E  E
|----------0--------0-|--------0-----------0-|
|--------0--------0---|------0----------0----|
|------9--------9-----|----9---------9-------|
|---------------------|----------------------|
|------------11-------|----------10----------|
|---9-----------------|--8-------------------|
|---------------------|----------------------|
|
|   W                    W
|---------------------|----------------------|
|---------------------|----------------------|
|---6-----------------|--5-------------------|
|---6-----------------|--5-------------------|
|---4-----------------|--3-------------------|
|---------------------|----------------------|
|---------------------|----------------------|


  C5                  D5
   W                   H.             Q
|-------------------|-------------------------|
|-17----------------|-19-------------19pb20r==|
|-------------------|-------------------------|
|-------------------|-------------------------|
|-------------------|-------------------------|
|-------------------|-------------------------|
|-------------------|-------------------------|
|
|  E E E E  E E E E    E  E E E  E E  E     E
|--------0--------0-|---------0-------------0-|
|------0--------0---|-------0---------0-------|
|----9--------9-----|-----9--------9----------|
|-------------------|-------------------------|
|----------10-------|-----------12------------|
|--8----------------|-10----------------------|
|-------------------|-------------------------|
|
|  W                   W
|-------------------|-------------------------|
|-------------------|-------------------------|
|--5----------------|--7----------------------|
|--5----------------|--7----------------------|
|--3----------------|--5----------------------|
|-------------------|-------------------------|
|-------------------|-------------------------|


  C#5                    C5
   H..               E    E  E  H.
|----------------------|----------------------|
|-17----------------15-|-15h17-17-------------|
|----------------------|----------------------|
|----------------------|----------------------|
|----------------------|----------------------|
|----------------------|----------------------|
|----------------------|----------------------|
|
|  E   E E E  E E E  E    E  E  E  E  E E E E
|----------0---------0-|-----------0--------0-|
|--------0--------0----|--------0---------0---|
|------9--------9------|-----9----------9-----|
|----------------------|----------------------|
|------------11--------|-------------10-------|
|--9-------------------|--8-------------------|
|----------------------|----------------------|
|
|  W                      W
|----------------------|----------------------|
|----------------------|----------------------|
|--6-------------------|--5-------------------|
|--6-------------------|--5-------------------|
|--4-------------------|--3-------------------|
|----------------------|----------------------|
|----------------------|----------------------|


  C5                   D5
    W                   H.             +E      E
|--------------------|------------------------17-|
|-/17----------------|-19-------------(19)b20----|
|--------------------|---------------------------|
|--------------------|---------------------------|
|--------------------|---------------------------|
|--------------------|---------------------------|
|--------------------|---------------------------|
|
|   E E E E  E E E E    E  E E E  E E   E      E
|---------0--------0-|---------0---------------0-|
|-------0--------0---|-------0----------0--------|
|-----9--------9-----|-----9--------9------------|
|--------------------|---------------------------|
|-----------10-------|-----------12--------------|
|---8----------------|-10------------------------|
|--------------------|---------------------------|
|
|   W                   W
|--------------------|---------------------------|
|--------------------|---------------------------|
|---5----------------|--7------------------------|
|---5----------------|--7------------------------|
|---3----------------|--5------------------------|
|--------------------|---------------------------|
|--------------------|---------------------------|


  C#5                       C5
   H..               S  S    W
|-16----------------17s16-|-15----|
|-------------------------|-------|
|-------------------------|-------|
|-------------------------|-------|
|-------------------------|-------|
|-------------------------|-------|
|-------------------------|-------|
|
|  E   E E E  E E E  E       W
|----------0---------0----|-------|
|--------0--------0-------|-------|
|------9--------9---------|-------|
|-------------------------|-------|
|------------11-----------|-------|
|--9----------------------|--8----|
|-------------------------|-------|
|
|  W                         W
|-------------------------|-------|
|-------------------------|-------|
|--6----------------------|--5----|
|--6----------------------|--5----|
|--4----------------------|--3----|
|-------------------------|-------|
|-------------------------|-------|


 Interlude
  N.C.
  Gtr V
   W                           +W
|---------------------------|------------------------------|
|-18------------------------|-(18)-------------------------|
|---------------------------|------------------------------|
|---------------------------|------------------------------|
|---------------------------|------------------------------|
|---------------------------|------------------------------|
|---------------------------|------------------------------|
|
| Gtrs I, II
|  e S S e S S e S S e S  S     e  S S e S  S e S S e S  S
|---------------------------|------------------------------|
|---------------------------|------------------------------|
|---------------------------|------------------------------|
|---------------------------|------------------------------|
|---------------------------|------------------------------|
|---------------------------|------------------------------|
|--0-0-1-0-0-3-0-0-1-0-0-13-|---0--0-1-0-0-12-0-0-1-0-0-10-|


   W                           +W
|---------------------------|------------------------------|
|-19------------------------|-(19)-------------------------|
|---------------------------|------------------------------|
|---------------------------|------------------------------|
|---------------------------|------------------------------|
|---------------------------|------------------------------|
|---------------------------|------------------------------|
|
|  e S S e S S e S S e S  S     e  S S e S  S e S S e S  S
|---------------------------|------------------------------|
|---------------------------|------------------------------|
|---------------------------|------------------------------|
|---------------------------|------------------------------|
|---------------------------|------------------------------|
|---------------------------|------------------------------|
|--0-0-1-0-0-3-0-0-1-0-0-13-|---0--0-1-0-0-12-0-0-1-0-0-10-|


   W                           H             H
|-17------------------------|-16------------20------------|
|---------------------------|-----------------------------|
|---------------------------|-----------------------------|
|---------------------------|-----------------------------|
|---------------------------|-----------------------------|
|---------------------------|-----------------------------|
|---------------------------|-----------------------------|
|
|  e S S e S S e S S e S  S    e S S e S  S  e S S e S  S
|---------------------------|-----------------------------|
|---------------------------|-----------------------------|
|---------------------------|-----------------------------|
|---------------------------|-----------------------------|
|---------------------------|-----------------------------|
|---------------------------|-----------------------------|
|--0-0-1-0-0-3-0-0-1-0-0-13-|--0-0-1-0-0-12--0-0-1-0-0-10-|


   W                           +W
|---------------------------|------------------------------|
|-18------------------------|-(18)-------------------------|
|---------------------------|------------------------------|
|---------------------------|------------------------------|
|---------------------------|------------------------------|
|---------------------------|------------------------------|
|---------------------------|------------------------------|
|
|  e S S e S S e S S e S  S     e  S S e S  S e S S e S  S
|---------------------------|------------------------------|
|---------------------------|------------------------------|
|---------------------------|------------------------------|
|---------------------------|------------------------------|
|---------------------------|------------------------------|
|---------------------------|------------------------------|
|--0-0-1-0-0-3-0-0-1-0-0-13-|---0--0-1-0-0-12-0-0-1-0-0-10-|


   W                           H             H
|-17------------------------|-16------------20------------|
|---------------------------|-----------------------------|
|---------------------------|-----------------------------|
|---------------------------|-----------------------------|
|---------------------------|-----------------------------|
|---------------------------|-----------------------------|
|---------------------------|-----------------------------|
|
|  e S S e S S e S S e S  S    e S S e S  S  e S S e S  S
|---------------------------|-----------------------------|
|---------------------------|-----------------------------|
|---------------------------|-----------------------------|
|---------------------------|-----------------------------|
|---------------------------|-----------------------------|
|---------------------------|-----------------------------|
|--0-0-1-0-0-3-0-0-1-0-0-13-|--0-0-1-0-0-12--0-0-1-0-0-10-|


   ~~~~~~~~~~~~~~~~~~~~~~~~~~~~~~~~~~~~
   W                           +Q           +H              +E     E
|---------------------------|-------------------------------------------|
|-18------------------------|-(18)b19======(18)------------(18)r--------|
|---------------------------|------------------------------------/16----|
|---------------------------|-------------------------------------------|
|---------------------------|-------------------------------------------|
|---------------------------|-------------------------------------------|
|---------------------------|-------------------------------------------|
|
|  e S S e S S e S S e S  S     e      S S   e  S  S e S S   e     S  S
|---------------------------|-------------------------------------------|
|---------------------------|-------------------------------------------|
|---------------------------|-------------------------------------------|
|---------------------------|-------------------------------------------|
|---------------------------|-------------------------------------------|
|---------------------------|-------------------------------------------|
|--0-0-1-0-0-3-0-0-1-0-0-13-|---0------0-1---0--0-12-0-0-1---0-----0-10-|


 Lead - Loomis
  Q=216
  N.C.
                                            |---3---|
   W                      Q.      E  +Q     E  E    E
|-19------------------|-\17------15-(15)---14-15---14-|
|---------------------|-------------------------------|
|---------------------|-------------------------------|
|---------------------|-------------------------------|
|---------------------|-------------------------------|
|---------------------|-------------------------------|
|---------------------|-------------------------------|
|
|  E E E  E E E  E  E     E  E E  E   E  E  E    E
|---------------------|-------------------------------|
|---------------------|-------------------------------|
|---------------------|-------------------------------|
|---------------------|-------------------------------|
|---------------------|-------------------------------|
|-10-----10-----10-10-|---9-------9---------9----9----|
|----0-0----0-0-------|------0-0------0--0------------|


                                                   ~~~~~~~~~~~~~~
                             |---3----|
   H.                a       E  E     E    E      +Q.       +Q      Q
|---------------------------14-15----14-|--------------------------14----|
|-17b19------------(17)pb19-------------|-17b19==(17)------(17)r---------|
|---------------------------------------|--------------------------------|
|---------------------------------------|--------------------------------|
|---------------------------------------|--------------------------------|
|---------------------------------------|--------------------------------|
|---------------------------------------|--------------------------------|
|
|  E    E E  E E E           E     E       E       E  E  E   E   E  E E
|---------------------------------------|--------------------------------|
|---------------------------------------|--------------------------------|
|---------------------------------------|--------------------------------|
|---------------------------------------|--------------------------------|
|---------------------------------------|--------------------------------|
|-12--------12--------------12----12----|-10------------10----------9-9--|
|-------0-0----0-0----------------------|----------0--0------0---0-------|


   |--------7:6---------|  |--------7:6---------|
   S  S  S    S  S    S S  S  S  S    S  S    S S  S  S  S  S
|-17p15p14----------------19p17p15----------------17-15-14----|
|------------17p15p==14p0------------19p17p==15p0----------17-|
|-------------------------------------------------------------|
|-------------------------------------------------------------|
|-------------------------------------------------------------|
|-------------------------------------------------------------|
|-------------------------------------------------------------|
|
|  E       E       E       E       E       E       E     E
|-------------------------------------------------------------|
|-------------------------------------------------------------|
|-------------------------------------------------------------|
|-------------------------------------------------------------|
|-------------------------------------------------------------|
|-10----------------------10----------------------10----10----|
|----------0-------0---------------0-------0------------------|


   S  S  S  S  S  S  S  S  S  S  S  S  S  S  S  S
|-15-14----14---------------------------------------|
|-------17----17-15-14------------------------------|
|----------------------16-14----------14------------|
|----------------------------17-16-17----17-16-14---|
|---------------------------------------------------|
|---------------------------------------------------|
|---------------------------------------------------|
|
|  E     E     E     E     E     E     E     E
|---------------------------------------------------|
|---------------------------------------------------|
|---------------------------------------------------|
|---------------------------------------------------|
|---------------------------------------------------|
|--9-----------------9-----------------9-----9------|
|--------0-----0-----------0-----0------------------|


  G5
               |-----5-----|
   S  S  S  S  S  S  S  S  S  S  S  S  S  S  S  S  S
|----------------------------------------------------|
|----------------------------------------------15-17-|
|-------------------------------------14-16-18-------|
|-17-16-14----16-14----------14-16-17----------------|
|----------17-------17-16-17-------------------------|
|----------------------------------------------------|
|----------------------------------------------------|
|
|  Q           Q              Q           Q
|----------------------------------------------------|
|----------------------------------------------------|
|----------------------------------------------------|
|----------------------------------------------------|
|--5-----------5--------------5-----------5----------|
|--3-----------3--------------3-----------3----------|
|----------------------------------------------------|


  E5                      N.C.
                           |-----5------|  |-----5-----|
   S  S  S  S  S  S  S  S  S   S  S  S  S  S  S  S  S  S
|--------------------------------------------------19h21-|
|----------19-20-22-20-19-----------------19h20h22-------|
|-18-19-21----------------21p=19p18h19h21----------------|
|--------------------------------------------------------|
|--------------------------------------------------------|
|--------------------------------------------------------|
|--------------------------------------------------------|
|
|  Q           Q           H
|--------------------------------------------------------|
|--------------------------------------------------------|
|--------------------------------------------------------|
|--------------------------------------------------------|
|--2-----------2-----------------------------------------|
|--0-----------0-----------------------------------------|
|--------------------------2/----------------------------|


  N.C.
    ~~~
    W                      Q.      E  +Q     Q
|--22------------------|-\21------19-(19)---18---|
|----------------------|-------------------------|
|-/19------------------|-\18------16-(16)---15---|
|----------------------|-------------------------|
|----------------------|-------------------------|
|----------------------|-------------------------|
|----------------------|-------------------------|
|   W                      Q.      E  +Q     Q
|
|   E E E  E E E  E  E     E  E E  E   E  E  E E
|----------------------|-------------------------|
|----------------------|-------------------------|
|----------------------|-------------------------|
|----------------------|-------------------------|
|----------------------|-------------------------|
|--10-----10-----10-10-|---9-------9---------9-9-|
|-----0-0----0-0-------|------0-0------0--0------|


                             |---3---|
   Q.      E  +Q     Q       E  E    E  +E   E  +Q     Q
|-19------21-(21)---19----|-18-19---18-(18)-----------------|
|-------------------------|-----------------20-(20)---19----|
|-16------18-(18)---16----|-15-16---15-(15)-----------------|
|-------------------------|-----------------17-(17)---16----|
|-------------------------|---------------------------------|
|-------------------------|---------------------------------|
|-------------------------|---------------------------------|
|  Q.      E  +Q     Q
|
|  E  E E  E   E  E  E  E    E    E      E   E   E  E  E E
|-------------------------|---------------------------------|
|-------------------------|---------------------------------|
|-------------------------|---------------------------------|
|-------------------------|---------------------------------|
|-------------------------|---------------------------------|
|-12------12--------12-12-|-10--------------10---------9-9--|
|-----0-0------0--0-------|-------0------0-------0--0-------|


   H             +H             H.            Q
|----------------------------|--------------------|
|----------------------------|---------------15---|
|-21b23=========(21)r========|=21-----------------|
|----------------------------|--------------------|
|-19b21=========(19)r========|=19-----------------|
|----------------------------|--------------------|
|----------------------------|--------------------|
|  H             +H             H.            Q
|
| Gtrs I, II
|  E     E E  E   E  E  E  E    E  E E E E E  E E
|----------------------------|--------------------|
|----------------------------|--------------------|
|----------------------------|--------------------|
|----------------------------|--------------------|
|----------------------------|--------------------|
|-10---------10--------10-10-|--9------9------9-9-|
|--------0-0------0--0-------|-----0-0---0-0------|


  G5         F#5  G5F#E5    D5
   |---3---|
   E  E    E  H        S  S  S  S
|------------------------------14-|
|-14-15---14----------------15----|
|------------16-------14h16-------|
|---------------------------------|
|---------------------------------|
|---------------------------------|
|---------------------------------|
|
|  PM------------------------------
|  E    E     E E E E  E     E
|---------------------------------|
|---------------------------------|
|---------------------------------|
|---------------------------------|
|--5----0-----4-0-5-4--2----------|
|--3----0-----2-0-3-2--0-----5----|
|----------------------------3----|


  E5               D5          F#5   E5    D5       C#5
   T
   |------5------|                          |------5------|
   S  S  S    S  S  S  S  S  S  S  S  S  S  S  S  S    S  S
|-19h24p19p==14-------------------14h15h17p15p14------------|
|---------------15-------------------------------17p==15p14-|
|------------------16---------------------------------------|
|---------------------16------------------------------------|
|------------------------17p14------------------------------|
|------------------------------14---------------------------|
|-----------------------------------------------------------|
|
|---------------------------------------------------|
|  E       E        E     E     E     E     E       E
|-----------------------------------------------------------|
|-----------------------------------------------------------|
|-----------------------------------------------------------|
|-----------------------------------------------------------|
|-------------------------------4-----2---------------------|
|--7-------0--------5-----0-----2-----0-----5-------4-------|
|--5-------0--------3-----0-----------------3-------2-------|


 Verse
  Q=108
  B5                    N.C.
   ~~~~~~~~~~~~~
   Q       +H.                     W
|--------------------------------|----------------------------|
|--------------------------------|----------------------------|
|-14b16===(14)r------------------|----------------------------|
|--------------------------------|----------------------------|
|--------------------------------|----------------------------|
|--------------------------------|----------------------------|
|--------------------------------|----------------------------|
|
|                             ~                            ~
|  q        S   S S S S S S S Q    S S S S S S S S S S S S Q
|--------------------------------|----------------------------|
|--------------------------------|----------------------------|
|--------------------------------|----------------------------|
|--------------------------------|----------------------------|
|--------------------------------|----------------------------|
|--2--------2---2---2------------|----------------------------|
|--0--------0---0---0---0-8-7-5--|-0-0-0-0-1p0---0---0-7-5-4--|


                                3/4
  Gtrs I, II
    PM--|                 ~~            ~~~~~~~
  S S S S S S S S S S S S E. S   S S S  S  +S  S S S S S S S
|------------------------------|-----------------------------|
|------------------------------|-----------------------------|
|------------------------------|-----------------------------|
|------------------------------|-----------------------------|
|------------------------------|-----------------------------|
|------------------------------|-------[5]-(5)---------------|
|-0-0-0-0-1p0---0---0-8-7-5--0-|-4-5-7---------7-5-4-0-4-5-7-|


 4/4
    PM--|                 ~~                             ~
  S S S S S S S S S S S S E. S   S S S S S S S S S S S S Q
|------------------------------|----------------------------|
|------------------------------|----------------------------|
|------------------------------|----------------------------|
|------------------------------|----------------------------|
|------------------------------|----------------------------|
|------------------------------|----------------------------|
|-0-0-0-0-1p0---0---0-8-7-5--0-|-0-0-0-0-1p0---0---0-7-5-4--|


                                3/4
    PM--|                 ~~            ~~~~~~~
  S S S S S S S S S S S S E. S   S S S  S  +S  S S S S S S S
|------------------------------|-----------------------------|
|------------------------------|-----------------------------|
|------------------------------|-----------------------------|
|------------------------------|-----------------------------|
|------------------------------|-----------------------------|
|------------------------------|-------[5]-(5)-------------7-|
|-0-0-0-0-1p0---0---0-8-7-5--0-|-4-5-7---------7-5-4-0-4-5---|


 Chorus
  C5                  E5   D5                    G5
 4/4
  Gtr III
  TP                        TP                    TP
  W                         H.                    Q
|------------------------|---------------------------|
|------------------------|---------------------------|
|-9----------------------|-11---------------------7--|
|------------------------|---------------------------|
|-7----------------------|--9---------------------5--|
|------------------------|---------------------------|
|------------------------|---------------------------|
|
| Gtr I
|     PM    PM      PM           PM    PM      PM
| E S S +S  S E +E  E Q     E  S S +S  S E +E  E  Q
|------------------------|---------------------------|
|------------------------|---------------------------|
|------------------------|---------------------------|
|------------------------|---------------------------|
|------------------------|---------------------------|
|-3-0-3-(3)-0-3-(3)-3-7--|--5--0-5-(5)-0-5-(5)-5-10--|
|-1-0-1-(1)-0-1-(1)-1-5--|--3--0-3-(3)-0-3-(3)-3--8--|
|
| Gtr II
|     PM    PM      PM           PM    PM      PM
| E S S +S  S E +E  E Q     E  S S +S  S E +E  E  Q
|------------------------|---------------------------|
|------------------------|---------------------------|
|------------------------|---------------------------|
|------------------------|---------------------------|
|------------------------|---------------------------|
|-3-0-3-(3)-0-3-(3)-3-7--|--5--0-5-(5)-0-5-(5)-5-10--|
|-1-0-1-(1)-0-1-(1)-1-5--|--3--0-3-(3)-0-3-(3)-3--8--|


  E5                   N.C.
   TP                           TP
   H..                          E
|---------------------------------|
|---------------------------------|
|-12---------------------------11-|
|---------------------------------|
|-10----------------------------9-|
|---------------------------------|
|---------------------------------|
|
|              PM
|  E   S S +S  S E +E  E T T S  E
|---------------------------------|
|---------------------------------|
|---------------------------------|
|---------------------------------|
|----------------------7-5-7-5----|
|--7---0-7-(7)-0-7-(7)----------7-|
|--5---0-5-(5)-0-5-(5)------------|
|
|              PM
|  E   S S +S  S E +E  E T T S  E
|---------------------------------|
|---------------------------------|
|---------------------------------|
|---------------------------------|
|---------------------------------|
|--7---0-7-(7)-0-7-(7)-8-7-8-7----|
|--5---0-5-(5)-0-5-(5)----------8-|


   TP          TP     TP        TP   TP
   E.          E.     Q         Q    E
|--------------------------------------|
|--------------------------------------|
|-12----------11------9--------11---12-|
|--------------------------------------|
|-10-----------9------7---------9---10-|
|--------------------------------------|
|--------------------------------------|
|
|  T  T S +S   S  +E  E +S  E.    E  E
|--------------------------------------|
|--------------------------------------|
|--------------------------------------|
|--------------------------------------|
|--------------------------------------|
|--5--7-5-(5)---------5-(5)-7----------|
|--------------8--(8)-------------0--3-|
|
|  T  T S +S   S  +E  E +S  E.    E  E
|--------------------------------------|
|--------------------------------------|
|--------------------------------------|
|--------------------------------------|
|--------------------------------------|
|--------------------------------------|
|--7--8-7-(7)--5--(5)-7-(7)-8-----0--3-|


  C5                    E5     D5                     G5
   TP             TP  TP   TP   TP              TP  TP    TP
   H              E   Q    E    H              +E   Q     E
|----------------------------|-------------------------------|
|----------------------------|-------------------------------|
|-12-------------12--14---16-|-14------------------16----17--|
|----------------------------|-------------------------------|
|-10-------------10--12---14-|-12-------------(12)-14----15--|
|----------------------------|-------------------------------|
|----------------------------|-------------------------------|
|
|      PM    PM       PM            PM    PM        PM
|  E S S +S  S E +E   E Q       E S S +S  S E  +E   E  Q
|----------------------------|-------------------------------|
|----------------------------|-------------------------------|
|----------------------------|-------------------------------|
|----------------------------|-------------------------------|
|----------------------------|-------------------------------|
|--3-0-3-(3)-0-3-(3)--3-7----|--5-0-5-(5)-0-5--(5)--5-10-----|
|--1-0-1-(1)-0-1-(1)--1-5----|--3-0-3-(3)-0-3--(3)--3--8-----|
|
|      PM    PM       PM            PM    PM        PM
|  E S S +S  S E +E   E Q       E S S +S  S E  +E   E  Q
|----------------------------|-------------------------------|
|----------------------------|-------------------------------|
|----------------------------|-------------------------------|
|----------------------------|-------------------------------|
|----------------------------|-------------------------------|
|--3-0-3-(3)-0-3-(3)--3-7----|--5-0-5-(5)-0-5--(5)--5-10-----|
|--1-0-1-(1)-0-1-(1)--1-5----|--3-0-3-(3)-0-3--(3)--3--8-----|


  E5                 N.C.
   TP                             TP          TP      TP        TP    TP
   W                              E.          E.      Q         E.    E.
|------------------------------|-------------------------------------------|
|------------------------------|-------------------------------------------|
|-16---------------------------|-16----------14------12--------14----16----|
|------------------------------|-------------------------------------------|
|-14---------------------------|-14----------12------10--------12----14----|
|------------------------------|-------------------------------------------|
|------------------------------|-------------------------------------------|
|
|            PM
|  E S S +S  S E +E  E T T S E    T  T S +S   S  +E   E +S  E.     E     E
|------------------------------|-------------------------------------------|
|------------------------------|-------------------------------------------|
|------------------------------|-------------------------------------------|
|------------------------------|-------------------------------------------|
|--------------------7-5-7-5---|-------------------------------------------|
|--7-0-7-(7)-0-7-(7)---------7-|--5--7-5-(5)----------5-(5)-7--------------|
|--5-0-5-(5)-0-5-(5)-----------|--------------8--(8)---------------0-----3-|
|
|            PM
|  E S S +S  S E +E  E T T S E    T  T S +S   S  +E   E +S  E.     E     E
|------------------------------|-------------------------
comments
We did not receive enough feedback on this tab! Please rate:
1 2 3 4 5
1 comment total.
0 reply
deaththrashcore wrote on September 15 2008, 08:30 pm

I love you for this.

I want to post or [tab]
guest
You may want to rate the tab now too:
select rating
Please do not post tabs as comments. Select "correction" instead!