Oops, an error
Loading. Please wait.

Narcosynthesis Tab

ver1
ver1

Whole song

Interactive

More versions @911Tabs.com
3,060 views 3 this week
no commentswrite comment
1 2 3 4 5
please rate
Autoscroll
+/-
esc
set tempo
stop
Contributor
Difficulty
advanced
Hey! There's an official Ultimate Guitar app which is ideal
for learning songs when you're away from computer. Get the app
WARNING: You are trying to view
                                    content from Ultimate-Guitar.com
                                    in an unauthorized application,
                                    which is prohibited.

                                    Please use an official Ultimate
                                    Guitar Tabs application for iPhone,
                                    iPad or Android to access legitimate
                                    chords, guitar, bass, and drum tabs
                                    from Ultimate-Guitar.com database.

                                    Type "ultimate guitar tabs" in Apple
                                    App Store's or Android Market's
                                    search to find the application.
Legend

pm.: Palm Mute         \:   Slide Back
*PH: Pinch Harmonic    h:   Hammer-on
*NH: Natural Harmonic  ():  Ghost Note
^fb: Full Bend         p:   Pull-off
^hb: Half Bend         ~:   Let Note Ring (Vibrato)
/:   Slide Forward     r:   release bend

Jeff Loomis
Tuning: 7-String Half Step Down (Bb Eb Ab Db Gb Bb eb)


Intro

|-------------------------------------------------|
|-------------------------------------------------|
|-------------------------------------------------|
|-------------------------------------------------|
|-------------------------------------------------|
|-------------------------------------------------|
|-6--0-6--0-6--0-6-0-6-0---6--0-6--0-6--0-6h7p6-0-|

|---------------------------------|
|---------------------------------|
|---------------------------------|
|---------------------------------|
|---------------------------------|
|--------------------2-2-2-2------|
|-6--0-6--0-6--0-6\--0-0-0-0------|
                     pm.....


Verse

|-----------------------------------------------------------|
|-----------------------------------------------------------|
|-----------------------------------------------------------|
|-----------------------------------------------------------|
|-2-2-2-2---2-2-2-2---2-2-2-2---2-2-2-2---2-2--2-2-2-2-2-2--|
|-2-2-2-2---2-2-2-2---2-2-2-2---2-2-2-2---2-2--2-2-2-2-2-2--|
|-0-0-0-0---0-0-0-0---0-0-0-0---0-0-0-0---0-0--0-0-0-0-0-0--|
  pm.....   .......   .......   .......   ...  ...........


|----------------------------------------------------------|
|----------------------------------------------------------|
|----------------------------------------------------------|
|----------------------------------------------------------|
|-2-2-2-2---2-2-2-2---2-2-2-2---2-2-2-2-2---2-2-2--2-2-2~--|
|-2-2-2-2---2-2-2-2---2-2-2-2---2-2-2-2-2---2-2-2--2-2-2~--|
|-0-0-0-0---0-0-0-0---0-0-0-0---0-0-0-0-0---0-0-0--0-0-0~--|
  pm.....   .......   .......   .........   .....  ...


Pre-Chorus

|----------------------------------------------------------|
|----------------------------------------------------------|
|----------------------------------------------------------|
|----------------------------------------------------------|
|----------------------------------------------------------|
|----------------------------------------------------------|
|-4--0-4--0-4--0-4-0-4h5p4-0---7--0-7--0-7--0-7-0-7h8p7-0--|

|----------------------------------------------------------|
|----------------------------------------------------------|
|----------------------------------------------------------|
|----------------------------------------------------------|
|----------------------------------------------------------|
|----------------------------------------------------------|
|-1--0-1--0-1--0-1-0-1h2p1-0---1--0-1--0-1--0-1-0-1h2p1-0--|


Verse 2

 gtr.1
|---------------------------------------------------------------------|
|---------------------------------------------------------------------|
|---------------------------------------------------------------------|
|---------------------------------------------------------------------|
|-2-2-2-2-----2-2-2-2-----2-2-2-2-----2-2-2-2-----2-2---2-2-2-2-2-2---|
|-2-2-2-2-----2-2-2-2-----2-2-2-2-----2-2-2-2-----2-2---2-2-2-2-2-2---|
|-0-0-0-0-----0-0-0-0-----0-0-0-0-----0-0-0-0-----0-0---0-0-0-0-0-0---|
| pm.....     .......     .......     .......     ...   ...........   |
|gtr.2                                                                |
|-8-7-7-7-7-7-8-7-7-7-7-7-8-7-7-7-7-7-8-7-8-10-8-7-8-7----8-7---------|
|------------------------------------------------------10-----10-8-10-|
|---------------------------------------------------------------------|
|---------------------------------------------------------------------|
|---------------------------------------------------------------------|
|---------------------------------------------------------------------|
|---------------------------------------------------------------------|

 gtr.1
|-----------------------------------------------------------------|
|-----------------------------------------------------------------|
|-----------------------------------------------------------------|
|-----------------------------------------------------------------|
|-2-2-2-2-----2-2-2-2-----2-2-2-2-----2-2-2-2-2-----2-2-2--2-2-2~-|
|-2-2-2-2-----2-2-2-2-----2-2-2-2-----2-2-2-2-2-----2-2-2--2-2-2~-|
|-0-0-0-0-----0-0-0-0-----0-0-0-0-----0-0-0-0-0-----0-0-0--0-0-0~-|
| pm.....     .......     .......     .........     .....  ...    |
|gtr.2                                                            |
|-8-7-7-7-7-7-8-7-7-7-7-7-8-7-7-7-7-7-8-7-8-10-8-7-8-7----7-------|
|------------------------------------------------------10---10*---|
|-----------------------------------------------------------PH----|
|-----------------------------------------------------------------|
|-----------------------------------------------------------------|
|-----------------------------------------------------------------|
|-----------------------------------------------------------------|

Then Follow Verse 1 Two More Times


 Pre Chorus 2
|------------------------------------------|
|---------------NH-------------------------|
|---------------5*-------------------------|
|---------------5*-------------------------|
|-2--------------------2-------------------|
|-2---2--2-2-2---------2---2--2-2-2---3/5--|
|-0---0--0-0-0---------0---0--0-0-0---1/3--|
      pm .....             pm .....

|---------------------------------|
|---------------------------------|
|---------------------------------|
|---------------------------------|
|-2-------------------------------|
|-2---2--2-2-2--3-2---7---7----3~-|
|-0---0--0-0-0--1-0---5---4----1~-|
      pm .....

Chorus

|-------------------------------------|
|-------------------------------------|
|-------------------------------------|
|-------------------------------------|
|-7--7--7/10--10-10--4--4/5\3--3--3-3-|
|-7--7--7/10--10-10--4--4/5\3--3--3-3-|
|-5--5--5/8---8--8---2--2/3\1--1--0-1-|


|--------------------------------------------|
|--------------------------------------------|
|--------------------------------------------|
|--------------------------------------------|
|-/7--7--7/10--10-10--/12-12-12--------------|
|-/7--7--7/10--10-10--/12-12-12--\5-5--------|
|-/5--5--5/8---8--8---/10-10-10--\4-4--0-1-0-|
                                       pm...

|-------------------------------------|
|-------------------------------------|
|-------------------------------------|
|-------------------------------------|
|-7--7--7/10--10-10--4--4/5\3--3------|
|-7--7--7/10--10-10--4--4/5\3--3------|
|-5--5--5/8---8--8---2--2/3\1--1--0-1-|


|-------------------------------------------|
|-------------------------------------------|
|-------------------------------------------|
|-------------------------------------------|
|-/7--7--7/10--10-10--/12-12-12-------------|
|-/7--7--7/10--10-10--/12-12-12--\5~-5-4-2--|
|-/5--5--5/8---8--8---/10-10-10--\4~-4-3-1--|
                                     pm...

Back To Intro Two Times

Verse 3

|-----------------------------------------------------------|
|-----------------------------------------------------------|
|-----------------------------------------------------------|
|-----------------------------------------------------------|
|-2-2-2-2---2-2-2-2---2-2-2-2---2-2-2-2---2-2--2-2-2-2-2-2--|
|-2-2-2-2---2-2-2-2---2-2-2-2---2-2-2-2---2-2--2-2-2-2-2-2--|
|-0-0-0-0---0-0-0-0---0-0-0-0---0-0-0-0---0-0--0-0-0-0-0-0--|
  pm.....   .......   .......   .......   ...  ...........


|------------------------------------------------------------|
|------------------------------------------------------------|
|------------------------------------------------------------|
|------------------------------------------------------------|
|-2-2-2-2---2-2-2-2---2-2-2-2---2-2-2-2-2---2-2-2--2-2---2~--|
|-2-2-2-2---2-2-2-2---2-2-2-2---2-2-2-2-2---2-2-2--2-2---2~--|
|-0-0-0-0---0-0-0-0---0-0-0-0---0-0-0-0-0---0-0-0--0-0---0~--|
  pm.....   .......   .......   .........   .....  ...

|-----------------------------------------------------------|
|-----------------------------------------------------------|
|-----------------------------------------------------------|
|-----------------------------------------------------------|
|-2-2-2-2---2-2-2-2---2-2-2-2---2-2-2-2---2-2--2-2-2-2-2-2--|
|-2-2-2-2---2-2-2-2---2-2-2-2---2-2-2-2---2-2--2-2-2-2-2-2--|
|-0-0-0-0---0-0-0-0---0-0-0-0---0-0-0-0---0-0--0-0-0-0-0-0--|
  pm.....   .......   .......   .......   ...  ...........


-|-----------------------------------------------------------|
|------------------------------------------------------------|
|------------------------------------------------------------|
|------------------------------------------------------------|
|-2-2-2-2---2-2-2-2---2-2-2-2---2-2-2-2-2---2-2-2--2-2---2~--|
|-2-2-2-2---2-2-2-2---2-2-2-2---2-2-2-2-2---2-2-2--2-2---2~--|
|-0-0-0-0---0-0-0-0---0-0-0-0---0-0-0-0-0---0-0-0--0-0---0~--|
  pm.....   .......   .......   .........   .....  ...


 gtr.1
|-----------------------------------------------------------|
|-----------------------------------------------------------|
|-----------------------------------------------------------|
|-----------------------------------------------------------|
|-2-2-2-2---2-2-2-2---2-2-2-2---2-2-2-2---2-2--2-2-2-2-2-2--|
|-2-2-2-2---2-2-2-2---2-2-2-2---2-2-2-2---2-2--2-2-2-2-2-2--|
|-0-0-0-0---0-0-0-0---0-0-0-0---0-0-0-0---0-0--0-0-0-0-0-0--|
|pm.....   .......   .......   .......   ...  ...........   |
|gtr.2                                                      |
|-----------------------------------------------------------|
|-----------------------------------------------------------|
|-----------------------------------------------------------|
|--9~~~------------------------\8~~~------------------------|
|--x----------------------------x---------------------------|
|--7~~~------------------------\6~~~------------------------|
|-(0)~~~~~~~~~~~~~~~~~~~~~~~~~~~~~~~~~~~~~~~~~~~~~~~~~~~~~--|

 gtr.1
|----------------------------------------------------|
|----------------------------------------------------|
|----------------------------------------------------|
|----------------------------------------------------|
|-2-2-2-2---2-2-2-2---2-2-2-2---2-2-2-2-2------------|
|-2-2-2-2---2-2-2-2---2-2-2-2---2-2-2-2-2---2--2--2--|
|-0-0-0-0---0-0-0-0---0-0-0-0---0-0-0-0-0---1--1--1--|
| pm.....   .......   .......   .........   .  .  .  |
|gtr.2                                               |
|----------------------------------------------------|
|----------------------------------------------------|
|----------------------------------------------------|
|-\7~~~------------------------\6~~~-----------------|
|--x----------------------------x--------------------|
|-\5~~~------------------------\4~~~-----------------|
|----------------------------------------------------|



Chorus 2


|------------------------------------|
|------------------------------------|
|------------------------------------|
|------------------------------------|
|-7--7--7/10--10-10--4--4/5\3--3--3--|
|-7--7--7/10--10-10--4--4/5\3--3--3--|
|-5--5--5/8---8--8---2--2/3\1--1--1--|

 gtr.1
|--------------------------------------------|
|--------------------------------------------|
|--------------------------------------------|
|--------------------------------------------|
|-/7--7--7/10--10-10--/12-12-12--------------|
|-/7--7--7/10--10-10--/12-12-12--\5-5--------|
|-/5--5--5/8---8--8---/10-10-10--\4-4--0-1-0-|
|gtr.2                                 pm... |
|---------------------------------12fb^r-12--|
|-----------------------------Volume-Swell---|
|--------------------------------------------|
|--------------------------------------------|
|--------------------------------------------|
|--------------------------------------------|
|--------------------------------------------|

 gtr.1
|------------------------------------------|
|------------------------------------------|
|------------------------------------------|
|------------------------------------------|
|-7---7---7/10---10--10---4--4/5\3---3--3--|
|-7---7---7/10---10--10---4--4/5\3---3--3--|
|-5---5---5/8----8---8----2--2/3\1---1--1--|
|gtr.2                                     |
|------------------------------------------|
|------------------------------------------|
|-4~--4--4/7~--6--6-7-6~---5-5h7--5h7p5p4~-|
|------------------------------------------|
|------------------------------------------|
|------------------------------------------|
|------------------------------------------|

 gtr.1
|---------------------------------------|
|---------------------------------------|
|---------------------------------------|
|---------------------------------------|
|-/7--7--7/10--10-10--/12-12-12---------|
|-/7--7--7/10--10-10--/12-12-12--\5~----|
|-/5--5--5/8---8--8---/10-10-10--\4~----|
|gtr.2                                  |
|---------------------------------------|
|---------------------------------------|
|-4/9-----9h11---9---11--11~--9---------|
|---------------------------------9~~~~-|
|---------------------------------------|
|---------------------------------------|
|---------------------------------------|


Solo

 gtr.1
|--------------------------------------------|
|--------------------------------------------|
|--------------------------------------------|
|--------------------------------------------|
|--------------------------------------------|
|--------------------------------------------|
|-5----0-5----0-5-------0-5----0-5--0--------|
|gtr.2                                       |
|-15-12-0-12-0----0---------------0-12-12-12-|
|--------------13---13-12-0-12-13------------|
|--------------------------------------------|
|--------------------------------------------|
|--------------------------------------------|
|--------------------------------------------|
|--------------------------------------------|


 gtr.1
|-----------------------------------------------|
|-----------------------------------------------|
|-----------------------------------------------|
|-----------------------------------------------|
|-----------------------------------------------|
|-----------------------------------------------|
|--5----0-5----0-5----0----5h6p5---0------------|
|gtr.2                                          |
|-15/19p15-0-15-0-12-0-12---------12-0-15-12----|
|-------------------------12-0-12------------15-|
|-----------------------------------------------|
|-----------------------------------------------|
|-----------------------------------------------|
|-----------------------------------------------|
|-----------------------------------------------|


 gtr.1
|--------------------------------------------|
|--------------------------------------------|
|--------------------------------------------|
|--------------------------------------------|
|--------------------------------------------|
|--------------------------------------------|
|-5----0-5----0-5-------0-5----0-5--0--------|
|gtr.2                                       |
|-15-12-0-12-0----0---------------0-12-12-12-|
|--------------13---13-12-0-12-13------------|
|--------------------------------------------|
|--------------------------------------------|
|--------------------------------------------|
|--------------------------------------------|
|--------------------------------------------|


 gtr.1
|-------------------------------------------------|
|-------------------------------------------------|
|-------------------------------------------------|
|-------------------------------------------------|
|-------------------------------------------------|
|--------------------------------2--2--2--2-------|
|-6----0-6----0-6-----0-6--(0)---0--0--0--0-------|
|gtr.2                           pm........       |
|-17/20-17-0-17-0----0----------------------------|
|-----------------19---16-19-16-0-----------------|
|---------------------------------17-16-14--------|
|------------------------------------------17-----|
|-------------------------------------------------|
|-------------------------------------------------|
|-------------------------------------------------|



 gtr.1
|-------------------------------------------------------------------------|
|-------------------------------------------------------------------------|
|-------------------------------------------------------------------------|
|--7---7--7------------------------------------------3-------3------------|
|--7---7--7---------\7---7--7------\5---5--5---------3-------3------------|
|--5---5--5-----0---\3---3--3----0-\2---2--2---/3----1-------1-------3--3-|
|-----------------------------------------------------------------0--1--0-|
|gtr.2                                                                    |
|-------------------------------------------------------------------------|
|-------------------------------------------------------------------------|
|-------------------------------------------------------------------------|
|--7~--7-7h9-7-7/9~--9--9h10-9-9/10~-10-12-10-12/14--12h14p12\10--9--7----|
|----------------------------------------------------------------------10-|
|-------------------------------------------------------------------------|
|-------------------------------------------------------------------------|


 gtr.1
|-----------------------------------------------------------------------------|
|-----------------------------------------------------------------------------|
|-----------------------------------------------------------------------------|
|--7---7--7------------------------------------------3-------3----------------|
|--7---7--7---------\7---7--7------\5---5--5----5----3-------3----------------|
|--5---5--5-----0---\3---3--3----0-\2---2--2---/3----1-------1---------5\3----|
|-------------------------------------------------------------------0--3\1----|
|gtr.2                                                                        |
|-----------------------------------------------------------------------------|
|-----------------------------------------------------------------------------|
|-----------------------------------------------------------------------------|
|--7~--7-7h9-7-7/9~--9--9h10-9-9/10~-10-12-10-12/14--12h14p12\10--9-7----7fb^-|
|---------------------------------------------------------------------10-PH---|
|-----------------------------------------------------------------------------|
|-----------------------------------------------------------------------------|


|------------------------------------------|
|---------------NH-------------------------|
|---------------5*-------------------------|
|---------------5*-------------------------|
|-2--------------------2-------------------|
|-2---2--2-2-2---------2---2--2-2-2---3/5--|
|-0---0--0-0-0---------0---0--0-0-0---1/3--|
      pm .....             pm .....

 gtr.1
|-----------------------------------------------------------|
|-----------------------------------------------------------|
|-----------------------------------------------------------|
|-----------------------------------------------------------|
|-2-2-2-2---2-2-2-2---2-2-2-2---2-2-2-2---2-2--2-2-2-2-2-2--|
|-2-2-2-2---2-2-2-2---2-2-2-2---2-2-2-2---2-2--2-2-2-2-2-2--|
|-0-0-0-0---0-0-0-0---0-0-0-0---0-0-0-0---0-0--0-0-0-0-0-0--|
|pm.....   .......   .......   .......   ...  ...........   |
|gtr.2                                                      |
|-----------------------------------------------------------|
|-----------------------------------------------------------|
|-----------------------------------------------------------|
|--9~~~------------------------\8~~~------------------------|
|--x----------------------------x---------------------------|
|--7~~~------------------------\6~~~------------------------|
|-(0)~~~~~~~~~~~~~~~~~~~~~~~~~~~~~~~~~~~~~~~~~~~~~~~~~~~~~--|

 gtr.1
|---------------------------------------------|
|---------------------------------------------|
|---------------------------------------------|
|---------------------------------------------|
|-2-2-2-2---2-2-2-2---2-2-2-2---2-2-2-2-2--3~-|
|-2-2-2-2---2-2-2-2---2-2-2-2---2-2-2-2-2--3~-|
|-0-0-0-0---0-0-0-0---0-0-0-0---0-0-0-0-0--1~-|
| pm.....   .......   .......   .........     |
|gtr.2                                        |
|---------------------------------------------|
|---------------------------------------------|
|---------------------------------------------|
|-\7~~~------------------------\6~~~----------|
|--x----------------------------x-------------|
|-\5~~~------------------------\4~~~----------|
|---------------------------------------------|


Chorus 3

|------------------------------------|
|------------------------------------|
|------------------------------------|
|------------------------------------|
|-7--7--7/10--10-10--4--4/5\3--3--3--|
|-7--7--7/10--10-10--4--4/5\3--3--3--|
|-5--5--5/8---8--8---2--2/3\1--1--1--|


|---------------------------------------------|
|---------------------------------------------|
|---------------------------------------------|
|---------------------------------------------|
|-/7--7--7/10--10-10--/12-12------------------|
|-/7--7--7/10--10-10--/12-12------------------|
|-/5--5--5/8---8--8---/10-10--7-6-5-4~--0-1-0-|
                                       pm...

|-------------------------------------|
|-------------------------------------|
|-------------------------------------|
|-------------------------------------|
|-7--7--7/10--10-10--4--4/5\3--3------|
|-7--7--7/10--10-10--4--4/5\3--3--3/5-|
|-5--5--5/8---8--8---2--2/3\1--1--1/3-|


|-------------------------------------------|
|-------------------------------------------|
|-------------------------------------------|
|-------------------------------------------|
|-/7--7--7/10--10-10--/12-12-12--\6~~~------|
|-/7--7--7/10--10-10--/12-12-12--\5~~~------|
|-/5--5--5/8---8--8---/10-10-10--\4~~~------|


Outro

|-------------------------------------------------------------|
|-------------------------------------------------------------|
|-------------------------------------------------------------|
|-------------------------------------5--4--3-----------------|
|-------------------------------------3--2--1-------8--7--5---|
|-7------7--6--5-------5--4--3----------------------6~-5~-3~--|
|-5---0--5--4--3----0--3--2--1-----1-------------0--PH-PH-PH--|

|-------------------------------------------------------------|
|-------------------------------------------------------------|
|-------------------------------------------------------------|
|-------------------------------------5--4--3-----------------|
|-------------------------------------3--2--1-------8--7--5---|
|-7------7--6--5-------5--4--3----------------------6~-5~-3~--|
|-5---0--5--4--3----0--3--2--1-----1-------------0--PH-PH-PH--|

 gtr.1
|------------------------------------------------------------------|
|------------------------------------------------------------------|
|------------------------------------------------------------------|
|-------------------------------------5--4--3-------3~-2~----------|
|-------------------------------------3--2--1-------1~-0~-5--------|
|-7------7--6--5-------5--4--3----------------------------3~-------|
|-5---0--5--4--3----0--3--2--1-----1-------------0--PH-PH-PH-------|
|gtr.2                                                             |
|------------------------------------------------------------------|
|------------------------------------------------------------------|
|------------------------------------15h16h17-16-15-16-------------|
|-14~--14-16-14-16~--16-17-19\17fb^r-------------------15*~--------|
|-----------------------------PH-----------------------PH----------|
|------------------------------------------------------------------|
|------------------------------------------------------------------|
 gtr.1
|------------------------------------------------------------------|
|------------------------------------------------------------------|
|------------------------------------------------------------------|
|-------------------------------------5--4--3----------------------|
|-------------------------------------3--2--1-------8--7--5--------|
|-7------7--6--5-------5--4--3----------------------6~-5~-3~-------|
|-5---0--5--4--3----0--3--2--1-----1-------------0--PH-PH-PH-------|
|gtr.2                                                             |
|------------------------------------------------------------------|
|------------------------------------------------------------------|
|------------------------------------15h16h17-16-15-16-------------|
|-14~--14-16-14-16~--16-17-19\17fb^r-------------------15*~--------|
|-----------------------------PH-----------------------PH----------|
|------------------------------------------------------------------|
|------------------------------------------------------------------|

Outro

|-------------------------------------------------|
|-------------------------------------------------|
|-------------------------------------------------|
|-------------------------------------------------|
|-------------------------------------------------|
|-------------------------------------------------|
|-6--0-6--0-6--0-6-0-6-0---6--0-6--0-6--0-6h7p6-0-|

|-------------------------|
|-------------------------|
|-------------------------|
|-------------------------|
|-------------------------|
|-------------------------|
|-6--0-6--0-6--0-6-0-6----|
comments
We did not receive enough feedback on this tab! Please rate:
print report bad tab
1 2 3 4 5
I want to post or [tab]
guest
You may want to rate the tab now too:
select rating
Please do not post tabs as comments. Select "correction" instead!