Oops, an error
Loading. Please wait.

Never Purify Tab

ver1
ver1

Whole song

Interactive

More versions @911Tabs.com
428 views 1 this week
no commentswrite comment
1 2 3 4 5
please rate
Autoscroll
+/-
esc
set tempo
stop
Contributor
Hey! There's an official Ultimate Guitar app which is ideal
for learning songs when you're away from computer. Get the app
WARNING: You are trying to view
                                    content from Ultimate-Guitar.com
                                    in an unauthorized application,
                                    which is prohibited.

                                    Please use an official Ultimate
                                    Guitar Tabs application for iPhone,
                                    iPad or Android to access legitimate
                                    chords, guitar, bass, and drum tabs
                                    from Ultimate-Guitar.com database.

                                    Type "ultimate guitar tabs" in Apple
                                    App Store's or Android Market's
                                    search to find the application.
Tempo: 123
Tuning: A#D#G#C#F#A#D#

D#||------------------------|----------------------------------|
A#||--0--0-0-0-0-0--0-0-0-0-|---0---0--0--0--0--0---0--0--0--0-|
F#||------------------------|----------------------------------|
C#||--9--9-9-9-9-9--9-9-9-9-|--11--11-11-11-11-11--11-11-11-11-|
G#||------------------------|----------------------------------|
D#||--7--7-7-7-7-7--7-7-7-7-|---9---9--9--9--9--9---9--9--9--9-|
A#||--0--0-0-0-0-0--0-0-0-0-|---0---0--0--0--0--0---0--0--0--0-|


   E   S  S  S  S  E   S  S  S  S     S   S  S  S  S  S  E   S  S  S  S  
----------------------------------|-------------------------------------|
---0---0--0--0--0--0---0--0--0--0-|---0---0--0--0--0--0--0---0--0--0--0-|
----------------------------------|-------------------------------------|
--14--14-14-14-14-14--14-14-14-14-|--13s-14-14-14-14-14-14--14-14-14-14-|
----------------------------------|-------------------------------------|
--12--12-12-12-12-12--12-12-12-12-|--11s-12-12-12-12-12-12--12-12-12-12-|
---0---0--0--0--0--0---0--0--0--0-|---0------0--0--0--0--0---0--0--0--0-|


  E  S S S S E  S S S S     E   S  S  S  S  E   S  S  S  S  
------------------------|----------------------------------|
--0--0-0-0-0-0--0-0-0-0-|---0---0--0--0--0--0---0--0--0--0-|
------------------------|----------------------------------|
--9--9-9-9-9-9--9-9-9-9-|--11--11-11-11-11-11--11-11-11-11-|
------------------------|----------------------------------|
--7--7-7-7-7-7--7-7-7-7-|---9---9--9--9--9--9---9--9--9--9-|
--0--0-0-0-0-0--0-0-0-0-|---0---0--0--0--0--0---0--0--0--0-|


  E  S S S S E  S S S S    E  S S S S E  S S S S    E  S S S S E  S S S S  
------------------------|------------------------|------------------------|
--0--0-0-0-0-0--0-0-0-0-|--0--0-0-0-0-0--0-0-0-0-|--0--0-0-0-0-0--0-0-0-0-|
------------------------|------------------------|------------------------|
--9--9-9-9-9-9--9-9-9-9-|--9--9-9-9-9-9--9-9-9-9-|--9--9-9-9-9-9--9-9-9-9-|
------------------------|------------------------|------------------------|
--7--7-7-7-7-7--7-7-7-7-|--7--7-7-7-7-7--7-7-7-7-|--7--7-7-7-7-7--7-7-7-7-|
--0--0-0-0-0-0--0-0-0-0-|--0--0-0-0-0-0--0-0-0-0-|--0--0-0-0-0-0--0-0-0-0-|


   E   S  S  S  S  E   S  S  S  S     E   S  S  S  S  E   S  S  S  S  
----------------------------------|----------------------------------|
---0---0--0--0--0--0---0--0--0--0-|---0---0--0--0--0--0---0--0--0--0-|
----------------------------------|----------------------------------|
--11--11-11-11-11-11--11-11-11-11-|--14--14-14-14-14-14--14-14-14-14-|
----------------------------------|----------------------------------|
---9---9--9--9--9--9---9--9--9--9-|--12--12-12-12-12-12--12-12-12-12-|
---0---0--0--0--0--0---0--0--0--0-|---0---0--0--0--0--0---0--0--0--0-|


   S   S  S  S  S  S  E   S  S  S  S    E  S S S S E  S S S S  
-------------------------------------|------------------------|
---0---0--0--0--0--0--0---0--0--0--0-|--0--0-0-0-0-0--0-0-0-0-|
-------------------------------------|------------------------|
--13s-14-14-14-14-14-14--14-14-14-14-|--9--9-9-9-9-9--9-9-9-9-|
-------------------------------------|------------------------|
--11s-12-12-12-12-12-12--12-12-12-12-|--7--7-7-7-7-7--7-7-7-7-|
---0------0--0--0--0--0---0--0--0--0-|--0--0-0-0-0-0--0-0-0-0-|


   E   S  S  S  S  E   S  S  S  S    E  S S S S E  S S S S  
----------------------------------|------------------------|
---0---0--0--0--0--0---0--0--0--0-|--0--0-0-0-0-0--0-0-0-0-|
----------------------------------|------------------------|
--11--11-11-11-11-11--11-11-11-11-|--9--9-9-9-9-9--9-9-9-9-|
----------------------------------|------------------------|
---9---9--9--9--9--9---9--9--9--9-|--7--7-7-7-7-7--7-7-7-7-|
---0---0--0--0--0--0---0--0--0--0-|--0--0-0-0-0-0--0-0-0-0-|


  E  S S S S E  S S E       S  E  S S S S S S S S S    S  E  S S S S S S S S S  
------------------------||--------------------------|--------------------------|
--0--0-0-0-0-0--0-0-0\--||--------------------------|--------------------------|
------------------------||--------------------------|--------------------------|
--9--9-9-9-9-9--9-9-9\--||--------------------------|--------------------------|
------------------------||--------------------------|--------------------------|
--7--7-7-7-7-7--7-7-7\--||--------------------------|----------------------2-3-|
--0--0-0-0-0-0--0-0-0\--||--3s-2--0---0-0-0---0---0-|--3s-2--0---0-0-2-3-5-----|


  S  E  S S S S S S S S S    S  E  S S S S S S S S S  4x
--------------------------|---------------------------||
--------------------------|---------------------------||
--------------------------|---------------------------||
--------------------------|---------------------------||
--------------------------|---------------------------||
--------------------------|---------------------------||
--3s-2--0---0-0-0---0---0-|--3s-2--0---0-0-2-3-5-3-2--||


  S S S S S S S S S S S S    S S S S S S S S S S S S  3x
--------------------------|---------------------------||
--------------------------|---------------------------||
--------------------------|---------------------------||
--------------------------|---------------------------||
--5---------8-5---------6-|--5---------8-5---------6--||
----4-----7-----4-----5---|----4-----7-----4-----5----||
------3-6---------3-4-----|------3-6---------3-4------||


  S S S S S S S S S S S S    S S S S S S S S S S S S  
--------------------------|--------------------------|
--------------------------|--------------------------|
--------------------------|--------------------------|
--------------------------|--------------------------|
--5---------8-5---------6-|--5---------8-5---------6-|
----4-----7-----4-----5---|----4-----7-----4-----5---|
------3-6---------3-4-----|------3-6---------3-4-----|


   S  E  S S S S S S S S S    S  E  S S S S S S S S S  
|--------------------------|--------------------------|
|--------------------------|--------------------------|
|--------------------------|--------------------------|
|--------------------------|--------------------------|
|--------------------------|--------------------------|
|--------------------------|----------------------2-3-|
|--3s-2--0---0-0-0---0---0-|--3s-2--0---0-0-2-3-5-----|


  S  E  S S S S S S S S S    S  E  S S S S S S S S S      Q.      S E  E  S  
--------------------------|---------------------------||--------------------|
--------------------------|---------------------------||--------------------|
--------------------------|---------------------------||--------------------|
--------------------------|---------------------------||--------------------|
--------------------------|---------------------------||--------------------|
--------------------------|---------------------------||--9\------2-2--2--2-|
--3s-2--0---0-0-0---0---0-|--3s-2--0---0-0-2-3-5-3-2--||--7\------0-0--0--0-|


  E  S S S S E  E  E   4x  E  S S S S E  S S S S  
-----------------------||------------------------|
-----------------------||--0--0-0-0-0-0--0-0-0-0-|
-----------------------||------------------------|
-----------------------||--9--9-9-9-9-9--9-9-9-9-|
-----------------------||------------------------|
--2--2-2-2-2-4--5--4---||--7--7-7-7-7-7--7-7-7-7-|
--0--0-0-0-0-2--3--2---||--0--0-0-0-0-0--0-0-0-0-|


   E   S  S  S  S  E   S  S  S  S     E   S  S  S  S  E   S  S  S  S  
----------------------------------|----------------------------------|
---0---0--0--0--0--0---0--0--0--0-|---0---0--0--0--0--0---0--0--0--0-|
----------------------------------|----------------------------------|
--11--11-11-11-11-11--11-11-11-11-|--14--14-14-14-14-14--14-14-14-14-|
----------------------------------|----------------------------------|
---9---9--9--9--9--9---9--9--9--9-|--12--12-12-12-12-12--12-12-12-12-|
---0---0--0--0--0--0---0--0--0--0-|---0---0--0--0--0--0---0--0--0--0-|


   S   S  S  S  S  S  E   S  S  S  S    E  S S S S E  S S S S  
-------------------------------------|------------------------|
---0---0--0--0--0--0--0---0--0--0--0-|--0--0-0-0-0-0--0-0-0-0-|
-------------------------------------|------------------------|
--13s-14-14-14-14-14-14--14-14-14-14-|--9--9-9-9-9-9--9-9-9-9-|
-------------------------------------|------------------------|
--11s-12-12-12-12-12-12--12-12-12-12-|--7--7-7-7-7-7--7-7-7-7-|
---0------0--0--0--0--0---0--0--0--0-|--0--0-0-0-0-0--0-0-0-0-|


   E   S  S  S  S  E   S  S  S  S    E  S S S S E  S S S S  
----------------------------------|------------------------|
---0---0--0--0--0--0---0--0--0--0-|--0--0-0-0-0-0--0-0-0-0-|
----------------------------------|------------------------|
--11--11-11-11-11-11--11-11-11-11-|--9--9-9-9-9-9--9-9-9-9-|
----------------------------------|------------------------|
---9---9--9--9--9--9---9--9--9--9-|--7--7-7-7-7-7--7-7-7-7-|
---0---0--0--0--0--0---0--0--0--0-|--0--0-0-0-0-0--0-0-0-0-|


  E  S S S S E  S S S S    E  S S S S E  S S S S  
------------------------|------------------------|
--0--0-0-0-0-0--0-0-0-0-|--0--0-0-0-0-0--0-0-0-0-|
------------------------|------------------------|
--9--9-9-9-9-9--9-9-9-9-|--9--9-9-9-9-9--9-9-9-9-|
------------------------|------------------------|
--7--7-7-7-7-7--7-7-7-7-|--7--7-7-7-7-7--7-7-7-7-|
--0--0-0-0-0-0--0-0-0-0-|--0--0-0-0-0-0--0-0-0-0-|


   E   S  S  S  S  E   S  S  S  S     E   S  S  S  S  E   S  S  S  S  
----------------------------------|----------------------------------|
---0---0--0--0--0--0---0--0--0--0-|---0---0--0--0--0--0---0--0--0--0-|
----------------------------------|----------------------------------|
--11--11-11-11-11-11--11-11-11-11-|--14--14-14-14-14-14--14-14-14-14-|
----------------------------------|----------------------------------|
---9---9--9--9--9--9---9--9--9--9-|--12--12-12-12-12-12--12-12-12-12-|
---0---0--0--0--0--0---0--0--0--0-|---0---0--0--0--0--0---0--0--0--0-|


   S   S  S  S  S  S  E   S  S  S  S    E  S S S S E  S S S S  
-------------------------------------|------------------------|
---0---0--0--0--0--0--0---0--0--0--0-|--0--0-0-0-0-0--0-0-0-0-|
-------------------------------------|------------------------|
--13s-14-14-14-14-14-14--14-14-14-14-|--9--9-9-9-9-9--9-9-9-9-|
-------------------------------------|------------------------|
--11s-12-12-12-12-12-12--12-12-12-12-|--7--7-7-7-7-7--7-7-7-7-|
---0------0--0--0--0--0---0--0--0--0-|--0--0-0-0-0-0--0-0-0-0-|


   E   S  S  S  S  E   S  S  S  S    E  S S S S E  S S S S  
----------------------------------|------------------------|
---0---0--0--0--0--0---0--0--0--0-|--0--0-0-0-0-0--0-0-0-0-|
----------------------------------|------------------------|
--11--11-11-11-11-11--11-11-11-11-|--9--9-9-9-9-9--9-9-9-9-|
----------------------------------|------------------------|
---9---9--9--9--9--9---9--9--9--9-|--7--7-7-7-7-7--7-7-7-7-|
---0---0--0--0--0--0---0--0--0--0-|--0--0-0-0-0-0--0-0-0-0-|


  E  S S S S E  S S E      S S S S S S S S S S S S    S S S S S S S S S S S S  
------------------------|--------------------------|--------------------------|
--0--0-0-0-0-0--0-0-0\--|--------------------------|--------------------------|
------------------------|--------------------------|--------------------------|
--9--9-9-9-9-9--9-9-9\--|--------------------------|--------------------------|
------------------------|--5-5---5---5-5---5---5---|--5-5---5---5-5---5---5---|
--7--7-7-7-7-7--7-7-7\--|--4-4---4---4-4---4---4---|--4-4---4---4-4---4---4---|
--0--0-0-0-0-0--0-0-0\--|--3-3---3---3-3---3---3---|--3-3---3---3-3---3---3---|


  S S S S S S S S S S S S    S S S S S S S S S S S S    S E  E  S E  E  E   
--------------------------|--------------------------|---------------------|
--------------------------|--------------------------|---------------------|
--------------------------|--------------------------|--7-7--7--7-7--7--7--|
--6-6---6---6-6---6---6---|--6-6---6---6-6---6---6---|--6-6--6--6-6--6--6--|
--5-5---5---5-5---5---5---|--5-5---5---5-5---5---5---|--5-5--5--5-5--5--5--|
--4-4---4---4-4---4---4---|--4-4---4---4-4---4---4---|--4-4--4--4-4--4--4--|
--3-3---3---3-3---3---3---|--3-3---3---3-3---3---3---|---------------------|


  S E  E  S E  E  E      S S S S S S S S S S S S    S S S S S S S S S S S S  
---------------------||--------------------------|--------------------------|
---------------------||--------------------------|--------------------------|
--7-7--7--7-7--7--7--||--------------------------|--------------------------|
--6-6--6--6-6--6--6--||--------------------------|--------------------------|
--5-5--5--5-5--5--5--||--5-----5-----5---5---6---|--5-----5-----5---6---7---|
--4-4--4--4-4--4--4--||--------------------------|--------------------------|
---------------------||----3-3---3-3---3---3---4-|----3-3---3-3---3---4---5-|


  S S S S S S S S S S S S    S S S S S S S S S S  S S  
--------------------------|---------------------------|
--------------------------|---------------------------|
--------------------------|---------------------------|
--------------------------|---------------------------|
--8-----8-----8---8---9---|--8-----8-----8---9---10---|
--------------------------|---------------------------|
----6-6---6-6---6---6---7-|----6-6---6-6---6---7----8-|


   S S S  S S S  S S  S S  S  S     S S S  S S S  S S  S  S  S  S  
--------------------------------|---------------------------------|
--------------------------------|---------------------------------|
--------------------------------|---------------------------------|
--------------------------------|---------------------------------|
--11-----11-----11---11---12----|--11-----11-----11---12----13----|
--------------------------------|---------------------------------|
-----9-9----9-9----9----9----10-|-----9-9----9-9----9----10----11-|


   S  S  S  S  S  S  S  S  S  S  S  S     S  S  S  S  S  S  S  S  S  S  S S    
--------------------------------------|--------------------------------------||
--------------------------------------|--------------------------------------||
--------------------------------------|--------------------------------------||
--------------------------------------|--------------------------------------||
--14-------14-------14----14----15----|--14-------14-------13----12----11----||
--------------------------------------|--------------------------------------||
-----12-12----12-12----12----12----13-|-----12-12----12-12----11----10----9--||


  Q.     S E  E  S    E  S S S S E  E  E     Q.      S E  E  S  
-------------------|----------------------|--------------------|
-------------------|----------------------|--------------------|
-------------------|----------------------|--------------------|
-------------------|----------------------|--------------------|
-------------------|----------------------|--------------------|
---------2-2--2--2-|--2--2-2-2-2-4--5--4--|--9\------2-2--2--2-|
---------0-0--0--0-|--0--0-0-0-0-2--3--2--|--7\------0-0--0--0-|


  E  S S S S E  E  E     Q.     S E  E  S    E  S S S S E  E  E   
----------------------|-------------------|----------------------|
----------------------|-------------------|----------------------|
----------------------|-------------------|----------------------|
----------------------|-------------------|----------------------|
----------------------|-------------------|----------------------|
--2--2-2-2-2-4--5--4--|---------2-2--2--2-|--2--2-2-2-2-4--5--4--|
--0--0-0-0-0-2--3--2--|---------0-0--0--0-|--0--0-0-0-0-2--3--2--|


  Q.      S E  E  S    E  S S S S E  E  E     E  E  S S E  E  E   
--------------------|----------------------|---------------------|
--------------------|----------------------|---------------------|
--------------------|----------------------|---------------------|
--------------------|----------------------|---------------------|
--------------------|----------------------|---------------------|
--9\------2-2--2--2-|--2--2-2-2-2-4--5--4--|---------------------|
--7\------0-0--0--0-|--0--0-0-0-0-2--3--2--|--2--2--2-2-2--3--2--|


                                                          PM PM PM PM PM PM  
  E  E  S S S S E  E     E  E  S S S S E  E     E  E  S S S  S  S  S  S  S   
----------------------|----------------------|------------------------------|
----------------------|----------------------|------------------------------|
----------------------|----------------------|------------------------------|
----------------------|----------------------|------------------------------|
----------------------|----------------------|------------------------------|
----------------------|----------------------|------------4--4--4--4--4--4--|
--2--2--2-2-2-2-3--2--|--2--2--2-2-2-2-3--2--|--2--2--2-2-2--2--2--2--2--2--|


  E  E  S S S S E  E     E  E  S S S S E  E     E  E  S S S S E  E   
----------------------|----------------------|----------------------|
----------------------|----------------------|----------------------|
----------------------|----------------------|----------------------|
----------------------|----------------------|----------------------|
----------------------|----------------------|----------------------|
----------------------|----------------------|----------------------|
--0--0--0-0-0-0-1--0--|--0--0--0-0-0-0-1--0--|--0--0--0-0-0-0-1--0--|


            PM PM PM PM PM PM                                                
  E  E  S S S  S  S  S  S  S     E  E  S S S S E  E     E  E  S S S S E  E   
------------------------------|----------------------|----------------------|
------------------------------|----------------------|----------------------|
------------------------------|----------------------|----------------------|
------------------------------|----------------------|----------------------|
------------------------------|----------------------|----------------------|
------------2--2--2--2--2--2--|----------------------|----------------------|
--0--0--0-0-0--0--0--0--0--0--|--7--7--7-7-7-7-8--7--|--7--7--7-7-7-7-8--7--|


  E  E  S S S S  E  E      E   E   S  S  S  S  E   E     Q.      S E  E  S  
-----------------------|------------------------------|--------------------|
-----------------------|------------------------------|--------------------|
-----------------------|------------------------------|--------------------|
-----------------------|------------------------------|--------------------|
-----------------------|------------------------------|--------------------|
-----------------------|------------------------------|--9\------2-2--2--2-|
--8--8--8-8-8-8-10--8--|--10--10--10-10-10-10-12--10--|--7\------0-0--0--0-|


  E  S S S S E  E  E     Q.      S E  E  S    E  S S S S E  E  E   
----------------------|--------------------|----------------------|
----------------------|--------------------|----------------------|
----------------------|--------------------|----------------------|
----------------------|--------------------|----------------------|
----------------------|--------------------|----------------------|
--2--2-2-2-2-4--5--4--|--9\------2-2--2--2-|--2--2-2-2-2-4--5--4--|
--0--0-0-0-0-2--3--2--|--7\------0-0--0--0-|--0--0-0-0-0-2--3--2--|


  S S S S S S S S S S S S    S S S S S S S S S S S S  
--------------------------|--------------------------|
--------------------------|--------------------------|
--------------------------|--------------------------|
--------------------------|--------------------------|
--5-5---5---5-5---5---5---|--5-5---5---5-5---5---5---|
--4-4---4---4-4---4---4---|--4-4---4---4-4---4---4---|
--3-3---3---3-3---3---3---|--3-3---3---3-3---3---3---|


  S S S S S S S S S S S S    S S S S S S S S S S S S    S E  E  S E  E  E   
--------------------------|--------------------------|---------------------|
--------------------------|--------------------------|---------------------|
--------------------------|--------------------------|--7-7--7--7-7--7--7--|
--6-6---6---6-6---6---6---|--6-6---6---6-6---6---6---|--6-6--6--6-6--6--6--|
--5-5---5---5-5---5---5---|--5-5---5---5-5---5---5---|--5-5--5--5-5--5--5--|
--4-4---4---4-4---4---4---|--4-4---4---4-4---4---4---|--4-4--4--4-4--4--4--|
--3-3---3---3-3---3---3---|--3-3---3---3-3---3---3---|---------------------|


  S E  E  S E  E  E     S E  E  S E  E  E     S E  E  S E  E  E   
---------------------|---------------------|---------------------|
---------------------|---------------------|---------------------|
--7-7--7--7-7--7--7--|--7-7--7--7-7--7--7--|--7-7--7--7-7--7--7--|
--6-6--6--6-6--6--6--|--6-6--6--6-6--6--6--|--6-6--6--6-6--6--6--|
--5-5--5--5-5--5--5--|--5-5--5--5-5--5--5--|--5-5--5--5-5--5--5--|
--4-4--4--4-4--4--4--|--4-4--4--4-4--4--4--|--4-4--4--4-4--4--4--|
---------------------|---------------------|---------------------|


   S  E  S S S S S S S S S    S  E  S S S S S S S S S  
|--------------------------|--------------------------|
|--------------------------|--------------------------|
|--------------------------|--------------------------|
|--------------------------|--------------------------|
|--------------------------|--------------------------|
|--------------------------|----------------------2-3-|
|--3s-2--0---0-0-0---0---0-|--3s-2--0---0-0-2-3-5-----|


  S  E  S S S S S S S S S    S  E  S S S S S S S S S  4x
--------------------------|---------------------------||
--------------------------|---------------------------||
--------------------------|---------------------------||
--------------------------|---------------------------||
--------------------------|---------------------------||
--------------------------|---------------------------||
--3s-2--0---0-0-0---0---0-|--3s-2--0---0-0-2-3-5-3-2--||


  E  S S S S E  S S S S     E   S  S  S  S  E   S  S  S  S  
------------------------|----------------------------------|
--0--0-0-0-0-0--0-0-0-0-|---0---0--0--0--0--0---0--0--0--0-|
------------------------|----------------------------------|
--9--9-9-9-9-9--9-9-9-9-|--11--11-11-11-11-11--11-11-11-11-|
------------------------|----------------------------------|
--7--7-7-7-7-7--7-7-7-7-|---9---9--9--9--9--9---9--9--9--9-|
--0--0-0-0-0-0--0-0-0-0-|---0---0--0--0--0--0---0--0--0--0-|


   E   S  S  S  S  E   S  S  S  S     S   S  S  S  S  S  E   S  S  S  S  
----------------------------------|-------------------------------------|
---0---0--0--0--0--0---0--0--0--0-|---0---0--0--0--0--0--0---0--0--0--0-|
----------------------------------|-------------------------------------|
--14--14-14-14-14-14--14-14-14-14-|--13s-14-14-14-14-14-14--14-14-14-14-|
----------------------------------|-------------------------------------|
--12--12-12-12-12-12--12-12-12-12-|--11s-12-12-12-12-12-12--12-12-12-12-|
---0---0--0--0--0--0---0--0--0--0-|---0------0--0--0--0--0---0--0--0--0-|


  E  S S S S E  S S S S     E   S  S  S  S  E   S  S  S  S  
------------------------|----------------------------------|
--0--0-0-0-0-0--0-0-0-0-|---0---0--0--0--0--0---0--0--0--0-|
------------------------|----------------------------------|
--9--9-9-9-9-9--9-9-9-9-|--11--11-11-11-11-11--11-11-11-11-|
------------------------|----------------------------------|
--7--7-7-7-7-7--7-7-7-7-|---9---9--9--9--9--9---9--9--9--9-|
--0--0-0-0-0-0--0-0-0-0-|---0---0--0--0--0--0---0--0--0--0-|


  E  S S S S E  S S S S    E  S S S S E  S S S S    E  S S S S E  S S S S  
------------------------|------------------------|------------------------|
--0--0-0-0-0-0--0-0-0-0-|--0--0-0-0-0-0--0-0-0-0-|--0--0-0-0-0-0--0-0-0-0-|
------------------------|------------------------|------------------------|
--9--9-9-9-9-9--9-9-9-9-|--9--9-9-9-9-9--9-9-9-9-|--9--9-9-9-9-9--9-9-9-9-|
------------------------|------------------------|------------------------|
--7--7-7-7-7-7--7-7-7-7-|--7--7-7-7-7-7--7-7-7-7-|--7--7-7-7-7-7--7-7-7-7-|
--0--0-0-0-0-0--0-0-0-0-|--0--0-0-0-0-0--0-0-0-0-|--0--0-0-0-0-0--0-0-0-0-|


   E   S  S  S  S  E   S  S  S  S     E   S  S  S  S  E   S  S  S  S  
----------------------------------|----------------------------------|
---0---0--0--0--0--0---0--0--0--0-|---0---0--0--0--0--0---0--0--0--0-|
----------------------------------|----------------------------------|
--11--11-11-11-11-11--11-11-11-11-|--14--14-14-14-14-14--14-14-14-14-|
----------------------------------|----------------------------------|
---9---9--9--9--9--9---9--9--9--9-|--12--12-12-12-12-12--12-12-12-12-|
---0---0--0--0--0--0---0--0--0--0-|---0---0--0--0--0--0---0--0--0--0-|


   S   S  S  S  S  S  E   S  S  S  S    E  S S S S E  S S S S  
-------------------------------------|------------------------|
---0---0--0--0--0--0--0---0--0--0--0-|--0--0-0-0-0-0--0-0-0-0-|
-------------------------------------|------------------------|
--13s-14-14-14-14-14-14--14-14-14-14-|--9--9-9-9-9-9--9-9-9-9-|
-------------------------------------|------------------------|
--11s-12-12-12-12-12-12--12-12-12-12-|--7--7-7-7-7-7--7-7-7-7-|
---0------0--0--0--0--0---0--0--0--0-|--0--0-0-0-0-0--0-0-0-0-|


   E   S  S  S  S  E   S  S  S  S    E  S S S S E  S S S S  
----------------------------------|------------------------|
---0---0--0--0--0--0---0--0--0--0-|--0--0-0-0-0-0--0-0-0-0-|
----------------------------------|------------------------|
--11--11-11-11-11-11--11-11-11-11-|--9--9-9-9-9-9--9-9-9-9-|
----------------------------------|------------------------|
---9---9--9--9--9--9---9--9--9--9-|--7--7-7-7-7-7--7-7-7-7-|
---0---0--0--0--0--0---0--0--0--0-|--0--0-0-0-0-0--0-0-0-0-|


  E  S S S S E  S S E       Q.      S E  E  S    E  S S S S E  E  E   3x
------------------------||--------------------|-----------------------||
--0--0-0-0-0-0--0-0-0\--||--------------------|-----------------------||
------------------------||--------------------|-----------------------||
--9--9-9-9-9-9--9-9-9\--||--------------------|-----------------------||
------------------------||--------------------|-----------------------||
--7--7-7-7-7-7--7-7-7\--||--9\------2-2--2--2-|--2--2-2-2-2-4--5--4---||
--0--0-0-0-0-0--0-0-0\--||--7\------0-0--0--0-|--0--0-0-0-0-2--3--2---||


  Q.      S E  E  S    S. H        E  T   
--------------------|-------------------||
--------------------|-------------------||
--------------------|-------------------||
--------------------|-------------------||
--------------------|-------------------||
--9\------2-2--2--2-|--2----------------||
--7\------0-0--0--0-|--0----------------||

Solo:

              |--6--|  |--6--|  |--6--|  
      Q.      S  S  S  S  S  S  S  S  S  
D#||---------19-17-15----------15-17-19-|
A#||------------------19-17-16----------|
F#||------------------------------------|
C#||------------------------------------|
G#||------------------------------------|
D#||------------------------------------|
A#||------------------------------------|


   |--6--|  |--6--|  |--6--|  |--6--|  |--6--|  |--6--|  
   S  S  S  S  S  S  S  S  S  S  S  S  S  S  S  S  S  S  
--24-19-17-15----------------15-17-19-17-15-------------|
--------------19-17-16-17-19----------------19-17-16-17-|
--------------------------------------------------------|
--------------------------------------------------------|
--------------------------------------------------------|
--------------------------------------------------------|
--------------------------------------------------------|


   |--6--|  |--6--|  |--6--|  |--6--|  |--6--|  |--6--|  
   S  S  S  S  S  S  S  S  S  S  S  S  S  S  S  S  S  S  
-----15-17-19-24-19-17-15----------------17-15-14-------|
--19----------------------19-17-16-17-19----------17-15-|
--------------------------------------------------------|
--------------------------------------------------------|
--------------------------------------------------------|
--------------------------------------------------------|
--------------------------------------------------------|


   |--6--|  |--6--|  |--6--|  |--6--|  |--6--|  |--6--|  
   S  S  S  S  S  S  S  S  S  S  S  S  S  S  S  S  S  S  
-----------17-15-14----------------14-15-20-22----------|
--14-15-17----------17-15-14-15-17-------------17-19-20-|
--------------------------------------------------------|
--------------------------------------------------------|
--------------------------------------------------------|
--------------------------------------------------------|
--------------------------------------------------------|


   |--6--|  |--6--|  |--6--|  |--6--|  |--6--|  |----6---|  
   S  S  S  S  S  S  S  S  S  S  S  S  S  S  S  S  S  T  T  
--17-20-23-20-17-------------------------------------------|
-----------------20-19-17-20-19-17----19-17----------------|
-----------------------------------19-------19-18----------|
--------------------------------------------------19-17----|
--------------------------------------------------------21-|
-----------------------------------------------------------|
-----------------------------------------------------------|


   |--6--|  |--6--|  |--6--|  |--6--|  |--6--|  |--6--|  
   S  S  S  S  S  S  S  S  S  S  S  S  S  S  S  S  S  S  
--------------------------------------------------------|
--------------------------------------------------------|
--------------------------------------------------------|
--19-17-------17----------------------------------------|
--------21-19----21-19-17-21-19-17-------------17-19-21-|
-----------------------------------19-17-19-21----------|
--------------------------------------------------------|


   |--6--|  |--6--|  |--6--|  |--6--|  |--6--|  |--6--|  
   S  S  S  S  S  S  S  S  S  S  S  S  S  S  S  S  S  S  
--------------------------------------------------------|
-----------------------19-20-22-20-19-------------------|
--------18-19-18-19-21----------------19-18-------------|
--19-21-------------------------------------21-17-------|
--------------------------------------------------21-19-|
--------------------------------------------------------|
--------------------------------------------------------|


   |--|                         |----3----|           
   S  T   T   T  T   T   T  T   T   T  S  S  Q.       
--------------------------------------19----19~------|
---------------------------19h-20h-22----22----------|
----------------18h-19h-21---------------------------|
-----17h-19h-21--------------------------------------|
--21-------------------------------------------------|
-----------------------------------------------------|
-----------------------------------------------------|


     W                         
     Q.      S  S  S  S  S  S  
------------------------------|
--<>18-------L----------------|
------------------------16-18-|
---------------16-18-19-------|
------------------------------|
------------------------------|
------------------------------|


             3  3  3 --- |--6--|  |--6--|  |--6--|  
   S  S  E   S  S  T  T  S  S  S  S  S  S  S  S  S  
---------------------------------------------------|
-----18-----18----------------18----------------18-|
--19----19-----19-18-16-18-19----19-18--L-18-19----|
---------------------------------------------------|
---------------------------------------------------|
---------------------------------------------------|
---------------------------------------------------|


   T  T  T  T  T  T  T  T  T  T  T  T  T  T  T  T  T  T  T  T  S  S  
--------------------------------------------------------------------|
--------------------------------------------------------------------|
--19-18-16-19-18-16----18-16-------16-------------------------------|
--------------------19-------19-18----19-18-16-19-18-16----18-16----|
--------------------------------------------------------20-------20-|
--------------------------------------------------------------------|
--------------------------------------------------------------------|


              W              
   |--3--|                   
   S  S  S    H         E    
----------------------------|
----------------------------|
----------------------------|
--16-------<>15---------L\--|
-----20-18------------------|
----------------------------|
----------------------------|


   |--3-| |--3--|  |--3--|  |--3--|            |------5-----|  
   S  S S S  S  S  S  S  S  S  S  S T T  T  T  T   T  T  T  T  
------------------10----10p-9---------------------------------|
---------------12----12-------12---------------------------16-|
------------11-------------------11---------------------16----|
----------9-------------------------9----------------16-------|
--------9-----------------------------9-------14h-18----------|
-----10---------------------------------10--------------------|
--12---------------------------------------12-----------------|


   T  T  T  T  T   T   T  T   T  T  T  T  S   T   T   T  T  T  T  T  T  T  T  
--14----------------------------------14-15p-14h-15p-14----------------------|
-----16----------------------------17-------------------17----------------15-|
--------16----------------------16-------------------------16----------16----|
-----------16------------14h-17-------------------------------17----16-------|
--------------18p-14h-18-----------------------------------------14----------|
-----------------------------------------------------------------------------|
-----------------------------------------------------------------------------|


   T                                                            
   T   T   E    T  T  T  T  T  T  T  T  T  T  T  T  T  T  T  S. 
--24p-19h-24\--14----------------------17-15-14----------------|
------------------15----------------15----------17-15-14-------|
---------------------16----------16----------------------16-15-|
------------------------16----16-------------------------------|
---------------------------14----------------------------------|
---------------------------------------------------------------|
---------------------------------------------------------------|


   Q.      Q      S S     E    Q.      S   S  E      H          E   E   
----------------------|--12----L-----------------|---------------------|
----------------------|--15b---L------15b--L-15--|--14~--------12--14--|
---L-------Lb-----L---|--------------------------|---------------------|
----------------------|--------------------------|---------------------|
----------------------|--------------------------|---------------------|
----------------------|--------------------------|---------------------|
----------------------|--------------------------|---------------------|


                                                          |--3--|     
   T   T  T  T  T  T  T  T  T  T  T  T  T  T  T  T  T  T  S  S  S  S  
--14s-15-14-12----------------------------------------------12-14-15-|
---------------15-14-12----------------------------12-14-15----------|
------------------------14-12-11----------11-12-14-------------------|
---------------------------------14-12-14----------------------------|
---------------------------------------------------------------------|
---------------------------------------------------------------------|
---------------------------------------------------------------------|


    S  T  T  T  T  T  T  T  T  T  T  T  T  T  T  T  T  T  T  S  S  
--/17-15-14----------------------------------------------14-15-17-|
------------17-15-14----------------------------14-15-17----------|
---------------------16-14-12----------12-14-16-------------------|
------------------------------16-14-16----------------------------|
------------------------------------------------------------------|
------------------------------------------------------------------|
------------------------------------------------------------------|


   Q      H           
--17b-----L~--------||
--------------------||
--------------------||
--------------------||
--------------------||
--------------------||
--------------------||


Duration Legend
---------------
W - whole
H - half
Q - quarter
E - 8th
S - 16th
T - 32nd
X - 64th
. - note dotted
|-n-|  - n-tuplets
comments
We did not receive enough feedback on this tab! Please rate:
print report bad tab
1 2 3 4 5
I want to post or [tab]
guest
You may want to rate the tab now too:
select rating
Please do not post tabs as comments. Select "correction" instead!