Oops, an error
Loading. Please wait.

My Scars Tab

725 views 1 this week
1 commentread comment
1 2 3 4 5
excellent!
x 1
add to favorites launch autoscroll
font size
0
reset
Autoscroll
+/-
esc
set tempo
stop
Contributor
WARNING: You are trying to view
                                    content from Ultimate-Guitar.com
                                    in an unauthorized application,
                                    which is prohibited.

                                    Please use an official Ultimate
                                    Guitar Tabs application for iPhone,
                                    iPad or Android to access legitimate
                                    chords, guitar, bass, and drum tabs
                                    from Ultimate-Guitar.com database.

                                    Type "ultimate guitar tabs" in Apple
                                    App Store's or Android Market's
                                    search to find the application.
----------------------------------------------------------------------------

                                My Scars

                                Neverset

----------------------------------------------------------------------------

Once again.... I’m back with another song, AND artist with without any tabs. So I chose
song My Scars, because it has a cool intro riff, also the chorus, and so I thought what
heck and make a tab for the song. Now some songs I wasn’t 110% happy about, but this 
I’m a sure as this tab being correct as you are a human... Right? Ok glad to know you’re
Enjoy!

Username: dkm817 (same on X box live)

Email: guitardrums@rockfan.com (please email me about the tab, thanks)

Website for band: htt://www.myspace.com/neversetband

Guitar 1 Rhythmic (C G C F A D)

Guitar 2 Lead     (C G C F A D)

Intro 1

Guitar 1

D-----------------------------------------------------------------|
A--------------------------------------------9--------------------|
F------------------------------------------8----------------------|
C-6-6-6----6-6-6----6-6-6-6\0----6-6-6---6------6-6-6-6\0----0/15-|
G-6-6-6----6-6-6----6-6-6-6\0----6-6-6----------6-6-6-6\0----0/15-|
C-6-6-6----6-6-6----6-6-6-6\0----6-6-6----------6-6-6-6\0----0/15-|

Intro 2

Guitar 1 & 2

D-----------------------------------------------------|
A-----------------------------------------------------|
F--------8---------9/13---------4---------6-------6\4-|
C-6-6-6--x--6-6-6--x/x---2-2-2--x--2-2-2--x--2-2--x---|x
G-6-6-6--6--6-6-6--7/11--2-2-2--2--2-2-2--4--2-2--4\2-|
C-6-6-6-----6-6-6--------2-2-2-----2-2-2-----2-2------|

Guitar 1 & 2

D---------------------------------------------------|
A---------------------------------------------------|
F--------8------------------------------------------|
C-6-6-6--x--6-6-6--7--6--4--2~-2-2~-2--2-4-2--2-4-2-|
G-6-6-6--6--6-6-6--7--6--4--2~-2-2~-2--2-4-2--2-4-2-|
C-6-6-6-----6-6-6--7--6--4--2~-2-2~-2--2-4-2--2-4-2-|
Pm                 .  .  .             . . .  . . .

Guitar 1

D-----------------------------------------------------------------|
A-----------------------------------------------------------------|
F--------8---------9/13----------------------------------5/6------|
C-6-6-6--x--6-6-6--x/x---2~-2-2~-4~-2-2~-2-4~--6~-6-7-6~-x/x--6-4-|
G-6-6-6--6--6-6-6--7/11--2~-2-2~-4~-2-2~-2-4~--6~-6-7-6~-3/4--6-4-|
C-6-6-6-----6-6-6--------2~-2-2~-4~-2-2~-2-4~--6~-6-7-6~------6-4-|

Guitar 2

D------------------------------------------------------------------|
A------------------------------------------------------------------|
F--------8---------ps/15----------------------------------5/6------|
C-6-6-6--x--6-6-6--ps/15--2~-2-2~-4~-2-2~-2-4~--6~-6-7-6~-x/x--6-4-|
G-6-6-6--6--6-6-6--ps/15--2~-2-2~-4~-2-2~-2-4~--6~-6-7-6~-3/4--6-4-|
C-6-6-6-----6-6-6---------2~-2-2~-4~-2-2~-2-4~--6~-6-7-6~------6-4-|

Guitar 1

D-----------------------------------------|
A-----------------------------------------|
F-----------------------------------------|
C-2~-2-2~-2--2-4-2--2-4-2--6~-6-6~-6~-6-6-|
G-2~-2-2~-2--2-4-2--2-4-2--6~-6-6~-6~-6-6-|
C-2~-2-2~-2--2-4-2--2-4-2--6~-6-6~-6~-6-6-|
Pm           . . .  . . .

Guitar 2

D-------------------------------------------|
A-------------------------------------------|
F-------------------------------------------|
C-2~-2-2~-2------------------6~-6-6~-6~-6-6-|
G-2~-2-2~-2------------------6~-6-6~-6~-6-6-|
C-2~-2-2~-2--2-4-2--0-4-4-2--6~-6-6~-6~-6-6-|

Verse 1

Guitar 1

D-------------------------------------------------------------------------|
A-------------------------------------------------------------------------|
F-------------------------------------------------------------------------|
C----------------------------------------------------------------x/15-x\1-|
G----------------------------------------------------------------x/15-x\1-|
C-7\6--7\6--7\6--7\6---7\6--7\6--7\6--7\6---7\6--7\6--7\6--7\6---x/15-x\1-|

Guitar 1

D--------------------------------------------------------------------------|
A--------------------------------------------------------------------------|
F--------------------------------------------------------------------------|
C----------------------------------------------------------------x/15-x\12-|
G----------------------------------------------------------------x/15-x\12-|
C-7\6--7\6--7\6--7\6---7\6--7\6--7\6--7\6---7\6--7\6--7\6--7\6---x/15-x\12-|

Guitar 2

D------------------------------------------------------------------------|
A------------------------------------------------------------------------|
F-9\8--9\8--9\8--x/4--9\8--9\8--9\8--x/4--9\8--9\8--9\8--x/4---x/15-x\12-|
C----------------x/4-----------------x/4-----------------x/4---x/15-x\12-|
G----------------x/4-----------------x/4-----------------x/4---x/15-x\12-|
C------------------------------------------------------------------------|

Chorus

Guitar 1 & 2

D-----------------------------------------------------|
A-----------------------------------------------------|
F--------8---------9/13---------4---------6-------6\4-|
C-6-6-6--x--6-6-6--x/x---2-2-2--x--2-2-2--x--2-2--x---|x
G-6-6-6--6--6-6-6--7/11--2-2-2--2--2-2-2--4--2-2--4\2-|
C-6-6-6-----6-6-6--------2-2-2-----2-2-2-----2-2------|

Guitar 1 & 2

D---------------------------------------------------|
A---------------------------------------------------|
F--------8------------------------------------------|
C-6-6-6--x--6-6-6--7--6--4--2~-2-2~-2--2-4-2--2-4-2-|
G-6-6-6--6--6-6-6--7--6--4--2~-2-2~-2--2-4-2--2-4-2-|
C-6-6-6-----6-6-6--7--6--4--2~-2-2~-2--2-4-2--2-4-2-|
Pm                 .  .  .             . . .  . . .

Guitar 1

D----------------------------------------------------------------|
A----------------------------------------------------------------|
F--------8---------9/13---------------------------------5/6------|
C-6-6-6--x--6-6-6--x/x--2~-2-2~-4~-2-2~-2-4~--6~-6-7-6~-x/x--6-4-|
G-6-6-6--6--6-6-6--7/11-2~-2-2~-4~-2-2~-2-4~--6~-6-7-6~-3/4--6-4-|
C-6-6-6-----6-6-6-------2~-2-2~-4~-2-2~-2-4~--6~-6-7-6~------6-4-|

Guitar 2

D------------------------------------------------------------------|
A------------------------------------------------------------------|
F--------8---------ps/15----------------------------------5/6------|
C-6-6-6--x--6-6-6--ps/15--2~-2-2~-4~-2-2~-2-4~--6~-6-7-6~-x/x--6-4-|
G-6-6-6--6--6-6-6--ps/15--2~-2-2~-4~-2-2~-2-4~--6~-6-7-6~-3/4--6-4-|
C-6-6-6-----6-6-6---------2~-2-2~-4~-2-2~-2-4~--6~-6-7-6~------6-4-|

Guitar 1

D-------------------------|
A-------------------------|
F-------------------------|
C-2~-2-2~-2--2-4-2--2-4-2-|
G-2~-2-2~-2--2-4-2--2-4-2-|
C-2~-2-2~-2--2-4-2--2-4-2-|
Pm           . . .  . . .

Guitar 2

D---------------------------|
A---------------------------|
F---------------------------|
C-2~-2-2~-2-----------------|
G-2~-2-2~-2-----------------|
C-2~-2-2~-2--2-4-2--0-4-4-2-|

Break off

Guitar 1

D------------------------------------------------------------------|
A------------------------------------------------------------------|
F------------------------------------------------------------------|
C-7-6-6-6-6-6--7-6-6-6-6-6--7-6-6--7-6-6-6-6-6--7-6-6-6-6-6--7-6-6-|
G-7-6-6-6-6-6--7-6-6-6-6-6--7-6-6--7-6-6-6-6-6--7-6-6-6-6-6--7-6-6-|
C-7-6-6-6-6-6--7-6-6-6-6-6--7-6-6--7-6-6-6-6-6--7-6-6-6-6-6--7-6-6-|

Guitar 2

D------------------------------------------------------------------|
A------------------------------------------------------------------|
F------------------------------------------------------------------|
C-7-6-6-6-6-6--7-6-6-6-6-6--7-6-6--7-6-6-6-6-6--7-6-6-6-6-6--7-6-6-|
G-6-6-6-6-6-6--6-6-6-6-6-6--6-6-6--6-6-6-6-6-6--6-6-6-6-6-6--6-6-6-|
C-6-6-6-6-6-6--6-6-6-6-6-6--6-6-6--6-6-6-6-6-6--6-6-6-6-6-6--6-6-6-|

Guitar 1

D--------------------------------------|
A--------------------------------------|
F--------------------------------------|
C--------------------------------------|
G--------------------------------------|
C-0-0-0--2-2-2--4-4-4--2-2-2--1-1--2-2-|

Guitar 2

D---------------------|
A---------------------|
F-12b\0--12tbr--12b\0-|
C---------------------|
G---------------------|
C---------------------|

Verse 2

Guitar 1

D--------------------------------|
A--------------------------------|
F--------------------------------|
C-6-0-0-0-0-0-6-0-0-0-0-0-6-0-0--| x3
G-6-0-0-0-0-0-6-0-0-0-0-0-6-0-0--|
C-6-0-0-0-0-0-6-0-0-0-0-0-6-0-0--|
Pm  . . . . .   . . . . .   . .

Guitar 1 & 2

D--------------------------------------|
A--------------------------------------|
F--------------------------------------|
C--------------------------------------|
G-4-4-4--7-7-7--9-9-9--7-7-7--6-6--7-7-|
C--------------------------------------|

Guitar 1

D--------------------------------|
A--------------------------------|
F--------------------------------|
C-6-0-0-0-0-0-6-0-0-0-0-0-6-0-0--| x3
G-6-0-0-0-0-0-6-0-0-0-0-0-6-0-0--|
C-6-0-0-0-0-0-6-0-0-0-0-0-6-0-0--|
Pm  . . . . .   . . . . .   . .

Guitar 2

D--------------------------------|
A--------------------------------|
F-9-8-8-8-8-8-9-8-8-8-8-8-9-8-8--|
C--------------------------------| x3
G--------------------------------|
C--------------------------------|

Guitar 1

D----------------------------------------------------------------|
A----------------------------------------------------------------|
F----------------------------------------------------------------|
C----------------------------------------------------------------|
G-4-4-4--7-7-7--9-9-9--7-7-7--6-6--7-7---------------------------|
C----------------------------------------------------------------|

Guitar 2

D-----------------------------------------------------------------|
A-----------------------------------------------------------------|
F---------------------------------------6-6-6--4-4-4--9-9-9--8~~~-|
C-----------------------------------------------------------------|
G-4-4-4--7-7-7--9-9-9--7-7-7--6-6--7-7----------------------------|
C-----------------------------------------------------------------|

Chorus

Guitar 1 & 2

D-----------------------------------------------------|
A-----------------------------------------------------|
F--------8---------9/13---------4---------6-------6\4-|
C-6-6-6--x--6-6-6--x/x---2-2-2--x--2-2-2--x--2-2--x---|x
G-6-6-6--6--6-6-6--7/11--2-2-2--2--2-2-2--4--2-2--4\2-|
C-6-6-6-----6-6-6--------2-2-2-----2-2-2-----2-2------|

Guitar 1 & 2

D---------------------------------------------------|
A---------------------------------------------------|
F--------8------------------------------------------|
C-6-6-6--x--6-6-6--7--6--4--2~-2-2~-2--2-4-2--2-4-2-|
G-6-6-6--6--6-6-6--7--6--4--2~-2-2~-2--2-4-2--2-4-2-|
C-6-6-6-----6-6-6--7--6--4--2~-2-2~-2--2-4-2--2-4-2-|
Pm                 .  .  .             . . .  . . .

Guitar 1

D----------------------------------------------------------------|
A----------------------------------------------------------------|
F--------8---------9/13---------------------------------5/6------|
C-6-6-6--x--6-6-6--x/x--2~-2-2~-4~-2-2~-2-4~--6~-6-7-6~-x/x--6-4-|
G-6-6-6--6--6-6-6--7/11-2~-2-2~-4~-2-2~-2-4~--6~-6-7-6~-3/4--6-4-|
C-6-6-6-----6-6-6-------2~-2-2~-4~-2-2~-2-4~--6~-6-7-6~------6-4-|

Guitar 2

D------------------------------------------------------------------|
A------------------------------------------------------------------|
F--------8---------ps/15----------------------------------5/6------|
C-6-6-6--x--6-6-6--ps/15--2~-2-2~-4~-2-2~-2-4~--6~-6-7-6~-x/x--6-4-|
G-6-6-6--6--6-6-6--ps/15--2~-2-2~-4~-2-2~-2-4~--6~-6-7-6~-3/4--6-4-|
C-6-6-6-----6-6-6---------2~-2-2~-4~-2-2~-2-4~--6~-6-7-6~------6-4-|

Guitar 1

D-------------------------|
A-------------------------|
F-------------------------|
C-2~-2-2~-2--2-4-2--2-4-2-|
G-2~-2-2~-2--2-4-2--2-4-2-|
C-2~-2-2~-2--2-4-2--2-4-2-|
Pm           . . .  . . .

Guitar 2

D---------------------------|
A---------------------------|
F---------------------------|
C-2~-2-2~-2-----------------|
G-2~-2-2~-2-----------------|
C-2~-2-2~-2--2-4-2--0-4-4-2-|

Breakdown

Guitar 1 & 2

D------------------------------------------------------------------------|
A------------------------------------------------------------------------|
F------------------------------------------------------------------------|
C------------------------------------------------------------------------|
G------------------------------------------------------------------------|
C-0-4-4-2--0-4-4-2--0-4-4-2--6-4-8-6--0-4-4-2--0-4-4-2--0-4-4-2--6-4-8-6-|

Guitar 1 & 2

D----------------------------------------------------------------------|
A----------------------------------------------------------------------|
F----------------------------------------------------------------------|
C----------------------------------------------------------------------|
G----------------------------------------------------------------------|
C-4-4-2--0-4-4-2--0-4-4-2--0-4-4-2--6-4-8-6--0-4-4-2--0-4-4-2--0-4-4-2-|

Guitar 1 & 2 continued

D---------|
A---------|
F---------|
C---------| that was short :D
G---------|
C-6-4-8-6-|

Bridge (Different type of Chorus)

Guitar 1 & 2

D-------------------------------------------------------|
A-------------------------------------------------------|
F-------------------------------------------------------|
C----------2-2------6-7-6--6-6-6-6-6-6-6-6~-2~~~-2~~~-2-|
G----------2-2------6-7-6--6-6-6-6-6-6-6-6~-2~~~-2~~~-2-|
C----------2-2------6-7-6--6-6-6-6-6-6-6-6~-2~~~-2~~~-2-|
Pm                         . . . . . .

Chorus

Guitar 1 & 2

D-----------------------------------------------------|
A-----------------------------------------------------|
F--------8---------9/13---------4---------6-------6\4-|
C-6-6-6--x--6-6-6--x/x---2-2-2--x--2-2-2--x--2-2--x---|x
G-6-6-6--6--6-6-6--7/11--2-2-2--2--2-2-2--4--2-2--4\2-|
C-6-6-6-----6-6-6--------2-2-2-----2-2-2-----2-2------|

Guitar 1 & 2

D---------------------------------------------------|
A---------------------------------------------------|
F--------8------------------------------------------|
C-6-6-6--x--6-6-6--7--6--4--2~-2-2~-2--2-4-2--2-4-2-|
G-6-6-6--6--6-6-6--7--6--4--2~-2-2~-2--2-4-2--2-4-2-|
C-6-6-6-----6-6-6--7--6--4--2~-2-2~-2--2-4-2--2-4-2-|
Pm                 .  .  .             . . .  . . .

Guitar 1

D----------------------------------------------------------------|
A----------------------------------------------------------------|
F--------8---------9/13---------------------------------5/6------|
C-6-6-6--x--6-6-6--x/x--2~-2-2~-4~-2-2~-2-4~--6~-6-7-6~-x/x--6-4-|
G-6-6-6--6--6-6-6--7/11-2~-2-2~-4~-2-2~-2-4~--6~-6-7-6~-3/4--6-4-|
C-6-6-6-----6-6-6-------2~-2-2~-4~-2-2~-2-4~--6~-6-7-6~------6-4-|

Guitar 2

D------------------------------------------------------------------|
A------------------------------------------------------------------|
F--------8---------ps/15----------------------------------5/6------|
C-6-6-6--x--6-6-6--ps/15--2~-2-2~-4~-2-2~-2-4~--6~-6-7-6~-x/x--6-4-|
G-6-6-6--6--6-6-6--ps/15--2~-2-2~-4~-2-2~-2-4~--6~-6-7-6~-3/4--6-4-|
C-6-6-6-----6-6-6---------2~-2-2~-4~-2-2~-2-4~--6~-6-7-6~------6-4-|

Guitar 1

D-------------------------|
A-------------------------|
F-------------------------|
C-2~-2-2~-2--2-4-2--2-4-2-|
G-2~-2-2~-2--2-4-2--2-4-2-|
C-2~-2-2~-2--2-4-2--2-4-2-|
Pm           . . .  . . .

Guitar 2

D---------------------------|
A---------------------------|
F---------------------------|
C-2~-2-2~-2-----------------|
G-2~-2-2~-2-----------------|
C-2~-2-2~-2--2-4-2--0-4-4-2-|

Chorus 2

Guitar 1

D--------------------------------------------------------|
A--------------------------------------------------------|
F----------------------------------------------------5/6-|
C-6~-6-6~-6~-6~-6\0--2~-2-2~-4~-2-2~-2~-4~-6~-6-7-6~-x/x-|
G-6~-6-6~-6~-6~-6\0--2~-2-2~-4~-2-2~-2~-4~-6~-6-7-6~-3/4-|
C-6~-6-6~-6~-6~-6\0--2~-2-2~-4~-2-2~-2~-4~-6~-6-7-6~-----|

Guitar 1 continued

D-------------------------------------------------------------------|
A-------------------------------------------------------------------|
F-------------------------------------------------------------------|
C-2~-2-2~-2--2-4-2--2-4-2--6~-6-6~-6~-6~-6\0--2~-2-2~-4~-2-2~-2~-4~-|
G-2~-2-2~-2--2-4-2--2-4-2--6~-6-6~-6~-6~-6\0--2~-2-2~-4~-2-2~-2~-4~-|
C-2~-2-2~-2--2-4-2--2-4-2--6~-6-6~-6~-6~-6\0--2~-2-2~-4~-2-2~-2~-4~-|
Pm           . . .  . . .

Guitar 1 continued

D---------------------------------------|
A---------------------------------------|
F-----------5/6-------------------------|
C-6~-6-7-6~-x/x-2~-2-2~-2--2-4-2--2-4-2-|
G-6~-6-7-6~-3/4-2~-2-2~-2--2-4-2--2-4-2-|
C-6~-6-7-6~-----2~-2-2~-2--2-4-2--2-4-2-|
Pm                         . . .  . . .

Guitar 2

D--------------------------------------------------------------------|
A-0/14t-0/14t-0/14t-----------------0/14t-0/14t-0/14t----------------|
F--------------------------------------------------------------------|
C---------------------2-4-2--2-4-2-----------------------------------|
G---------------------2-4-2--2-4-2-----------------------------------|
C---------------------2-4-2--2-4-2--------------------2-4-2--0-4-4-2-|
Pm                    . . .  . . .

Outro

Guitar 1 & 2

D----------------------------------------------------------------------------|
A----------------------------------------------------------------------------|
F--------------------------------------------------------------------8-8-8~~-|
C--------------------------------------------------------------------x-x-x---|
G--------------------------------------------------------------------6-6-6~~-|
C-0-4-4-2--0-4-4-2--0-4-4-2--6-4-8-6--0-4-4-2--0-4-4-2--0-4-4-2--6-4---------|

Tab Legend

h  -  hammer-on

p  -  pull-off

b  -  bend

r  -  return from bend

/  -  slide up

\  -  slide down

ps/-  pickslide up

ps\-  pickslide down

pm.-  palm mute

t  -  triple strum (just strum fast)

~  -  let ring

x  -  play with light hands

Well that’s it.. Ok cool song = one cool tab. I hope you liked it, and I will be working
Penetrate, Illuminate by Cry of the Afflicted next, which might take a while. Oh yeah
last thing... Rock Out!!!!
comments
We did not receive enough feedback on this tab! Please rate:
print report bad tab
1 2 3 4 5
1 comment total.
0 reply
mikey_360 wrote on August 31 2009, 05:37 pm

Love this song. Shame there isn't any other tabs to compare this one to.

I want to post or [tab]
guest
You may want to rate the tab now too:
select rating
Please do not post tabs as comments. Select "correction" instead!