Oops, an error
Loading. Please wait.

Blossom Friend Tab

1,405 views 3 this week
no commentswrite comment
1 2 3 4 5
please rate
Autoscroll
+/-
esc
set tempo
stop
Contributor
Difficulty
intermediate
WARNING: You are trying to view
                                    content from Ultimate-Guitar.com
                                    in an unauthorized application,
                                    which is prohibited.

                                    Please use an official Ultimate
                                    Guitar Tabs application for iPhone,
                                    iPad or Android to access legitimate
                                    chords, guitar, bass, and drum tabs
                                    from Ultimate-Guitar.com database.

                                    Type "ultimate guitar tabs" in Apple
                                    App Store's or Android Market's
                                    search to find the application.
Title: Blossom Friend
Artist: Nick Drake
Words: Nick Drake
Music: Nick Drake
Tabber: Benjamin Blue
Tempo = 136
Steel Guitar


n - pick stroke down


E |----------------------------|
B |--------6-----------6-------|
G |--------6-----------6-------|
D |-----6-----6-----6-----6----|
A |--4-------------------------|
E |--------------8-------------|


--------------2-------------------------------------|
--------------2-------------------------------------|
----------------------------------------------------|
--------4-----------4-----------4-----------4-------|
--------------------------4-------------------------|
--6-----------------------------------6--4----------|


--------------------2-------|--------2--------2---------||
--------7-----------2-------|--------4--1-----4---------||
--------6--------3-----3----|-----5-----------5--------o||
-----6-----6----------------|-----------------------4--o||
----------------------------|---------------------------||
--4-----------4-------------|--4-----------4-----4------||


--------2-----------2-------|----------------------------|
--------2-----------2-------|--------6-----------6-------|
----------------------------|--------6-----------6-------|
-----4-----4-----4-----4----|-----6-----6-----6-----6----|
--------------4-------------|--4-----------4-------------|
--6-------------------------|----------------------------|


----------------------------|--------2--------2----------|
--------4-----------4-------|--------2--------2----------|
--------5-----------5-------|----------------------------|
-----6-----6-----6-----6----|-----4--------4--------4----|
----------------------------|-----------1--------1-------|
--8-----------8-------------|--6-------------------------|


----------------------------|----------------------------|
--------6--------6----------|--------2--------2----------|
--------6--------6----------|----------------------------|
-----6--------6--------6----|-----4--------4--------4----|
--4--------4--------4-------|--0--------0--------0-------|
----------------------------|----------------------------|


----------------------------|----------------------------|
--------6--------6----------|--------2--------2----------|
--------6--------6----------|----------------------------|
-----6--------6--------6----|-----4--------4--------4----|
--4--------4--------4-------|--0--------0--------0-------|
----------------------------|----------------------------|


----------------------------||---------------------------|
--------2--------2-----2----||-------6-----------6-------|
----------------------------||o------6-----------6-------|
-----4--------4-------------||o---6-----6-----6-----6----|
--0--------0--------0-------||-4-------------------------|
----------------------------||-------------8-------------|


--------2-------------------|--------------------2-------|
--------2-------------------|--------7-----------2-------|
----------------------------|--------6--------3-----3----|
-----4-----4-----4-----4----|-----6-----6----------------|
--------------4-------------|----------------------------|
--6-----------------6-------|--4-----------4-------------|


--------2--------2---------||--------2-----------2-------|
--------4--1-----4---------||--------2-----------2-------|
-----5-----------5--------o||----------------------------|
-----------------------4--o||-----4-----4-----4-----4----|
---------------------------||--------------4-------------|
--4-----------4-----4------||--6-------------------------|


----------------------------|----------------------------|
--------6-----------6-------|--------4-----------4-------|
--------6-----------6-------|--------5-----------5-------|
-----6-----6-----6-----6----|-----6-----6-----6-----6----|
--4-----------4-------------|----------------------------|
----------------------------|--8-----------8-------------|


--------2--------2----------|----------------------------|
--------2--------2----------|--------6--------6----------|
----------------------------|--------6--------6----------|
-----4--------4--------4----|-----6--------6--------6----|
-----------1--------1-------|--4--------4--------4-------|
--6-------------------------|----------------------------|


----------------------------|----------------------------|
--------2--------2----------|--------6--------6----------|
----------------------------|--------6--------6----------|
-----4--------4--------4----|-----6--------6--------6----|
--0--------0--------0-------|--4--------4--------4-------|
----------------------------|----------------------------|


----------------------------|----------------------------|
--------2--------2----------|--------6--------6----------|
----------------------------|--------6--------6----------|
-----4--------4--------4----|-----6--------6--------6----|
--0--------0--------0-------|--4--------4--------4-------|
----------------------------|----------------------------|


----------------------------|--------2--------2----------|
--------0--------0----------|--------2--------2----------|
--------10-------10---------|----------------------------|
-----6----------------------|-----4--------4--------4----|
--4-----------11-------11---|-----------4--------4-------|
-----------9--------9-------|--6-------------------------|


----------------------------|--------2--------2----------|
--------6--------6----------|--------2--------2----------|
--------6--------6----------|----------------------------|
-----6--------6--------6----|-----4--------4--------4----|
--4--------4--------4-------|-----------4--------4-------|
----------------------------|--6-------------------------|


----------------------------|--------2--------2----------|
--------6--------6----------|--------2--------2----------|
--------6--------6----------|----------------------------|
-----6--------6--------6----|-----4--------4--------4----|
--4--------4--------4-------|-----------4--------4-------|
----------------------------|--6-------------------------|


--------2--------2----------|--------------------2-------|
--------2--------2----------|--------7-----------2-------|
----------------------------|--------6--------3-----3----|
-----4--------4--------4----|-----6-----6----------------|
-----------4--------4-------|----------------------------|
--6-------------------------|--4-----------4-------------|


--------2--------2----------||---------------------------|
--------4--1-----4----------||-------6-----------6-------|
-----5-----------5----------||o------6-----------6-------|
-----------------------4----||o---6-----6-----6-----6----|
----------------------------||-4-------------------------|
--4-----------4-----4-------||-------------8-------------|


--------2-------------------|--------------------2-------|
--------2-------------------|--------7-----------2-------|
----------------------------|--------6--------3-----3----|
-----4-----4-----4-----4----|-----6-----6----------------|
--------------4-------------|----------------------------|
--6-----------------6-------|--4-----------4-------------|


--------2--------2---------||--------2-----------2-------|
--------4--1-----4---------||--------2-----------2-------|
-----5-----------5--------o||----------------------------|
-----------------------4--o||-----4-----4-----4-----4----|
---------------------------||--------------4-------------|
--4-----------4-----4------||--6-------------------------|


----------------------------|----------------------------|
--------6-----------6-------|--------4-----------4-------|
--------6-----------6-------|--------5-----------5-------|
-----6-----6-----6-----6----|-----6-----6-----6-----6----|
--4-----------4-------------|----------------------------|
----------------------------|--8-----------8-------------|


--------2--------2----------|----------------------------|
--------2--------2----------|--------6--------6----------|
----------------------------|--------6--------6----------|
-----4--------4--------4----|-----6--------6--------6----|
-----------1--------1-------|--4--------4--------4-------|
--6-------------------------|----------------------------|


----------------------------|----------------------------|
--------2--------2----------|--------6--------6----------|
----------------------------|--------6--------6----------|
-----4--------4--------4----|-----6--------6--------6----|
--0--------0--------0-------|--4--------4--------4-------|
----------------------------|----------------------------|


----------------------------|----------------------------||
--------2--------2----------|--------2--------2-----2----||
----------------------------|----------------------------||
-----4--------4--------4----|-----4--------4-------------||
--0--------0--------0-------|--0--------0--------0-------||
----------------------------|----------------------------||


---------------------------|--------2-------------------|
-------6-----------6-------|--------2-------------------|
o------6-----------6-------|----------------------------|
o---6-----6-----6-----6----|-----4-----4-----4-----4----|
-4-------------------------|--------------4-------------|
-------------8-------------|--6-----------------6-------|


--------------------2-------|--------2--------2---------||
--------7-----------2-------|--------4--1-----4---------||
--------6--------3-----3----|-----5-----------5--------o||
-----6-----6----------------|-----------------------4--o||
----------------------------|---------------------------||
--4-----------4-------------|--4-----------4-----4------||


--------2-----------2-------|----------------------------|
--------2-----------2-------|--------6-----------6-------|
----------------------------|--------6-----------6-------|
-----4-----4-----4-----4----|-----6-----6-----6-----6----|
--------------4-------------|--4-----------4-------------|
--6-------------------------|----------------------------|


----------------------------|--------2--------2----------||
--------4-----------4-------|--------2--------2----------||
--------5-----------5-------|----------------------------||
-----6-----6-----6-----6----|-----4--------4--------4----||
----------------------------|-----------1--------1-------||
--8-----------8-------------|--6-------------------------||


---------------------------|---------------------------||
-------6--------6----------|--------2--------2---------||
o------6--------6----------|--------------------------o||
o---6--------6--------6----|-----4--------4--------4--o||
-4--------4--------4-------|--0--------0--------0------||
---------------------------|---------------------------||


----------------------------|----------------------------||
--------6--------7----------|--4--------6L----------6----||
--------6--------6----------|--6--------6L----------6----||
-----6--------6--------6----|--------6-------------------||
--4--------4--------4-------|-----4----------------------||
----------------------------|----------------------------||
comments
We did not receive enough feedback on this tab! Please rate:
print report bad tab
1 2 3 4 5
I want to post or [tab]
guest
You may want to rate the tab now too:
select rating
Please do not post tabs as comments. Select "correction" instead!