Oops, an error
Loading. Please wait.

All The Right Reasons Tab

ver2
ver2

Album

More versions @911Tabs.com
9,845 views 9 this week
2 commentsread comments
1 2 3 4 5
worth learning
x 2
add to favorites launch autoscroll
font size
0
reset
Autoscroll
+/-
esc
set tempo
stop
WARNING: You are trying to view
                                    content from Ultimate-Guitar.com
                                    in an unauthorized application,
                                    which is prohibited.

                                    Please use an official Ultimate
                                    Guitar Tabs application for iPhone,
                                    iPad or Android to access legitimate
                                    chords, guitar, bass, and drum tabs
                                    from Ultimate-Guitar.com database.

                                    Type "ultimate guitar tabs" in Apple
                                    App Store's or Android Market's
                                    search to find the application.
 1. Follow You Home
 2. Fight For All The Wrong Reasons
 3. Photograph
 4. Animals
 5. Savin' Me
 6. Far Away
 7. Next Contestant
 8. Side of a Bullet
 9. If Everyone Cared
10. Someone That You're With
11. Rockstar







 1. Follow You Home




Intro
------------------------------------------------------------------------------------|
------------------------------------3-----------------------------------------------|
------------------------------------2-----------------------------------------------|
-5-7-5-7-10-7-5-7-5-7-10-10-5-7-x-x-0---------------7-5-7-10-10-5-7-x-x-3---10-12---|
-5-7-5-7-10-7-5-7-5-7-10-10-5-7-x-x-0---------------7-5-7-10-10-5-7-x-x-3---10-12---|
-5-7-5-7-10-7-5-7-5-7-10-10-5-7-x-x-0---10h12p10----7-5-7-10-10-5-7-x-x-3---10-12---|

-------------------------------------------------------------------|
---------------------3---------------------------------------------|
---------------------2---------------------------------------------|
-7-5-7-10-10-5-7-x-x-0--------------7-5-7-10-10-5-7-x-x-3---10-12--|
-7-5-7-10-10-5-7-x-x-0--------------7-5-7-10-10-5-7-x-x-3---10-12--|
-7-5-7-10-10-5-7-x-x-0---10h12p10---7-5-7-10-10-5-7-x-x-3---10-12--|

----------------------------------------------------------------------|
---------------------------------5s8s10s13s15s17-17-----15-17-17------|
---5----------5-----------5-7-5---------------------14------------14--|
-7---7--5--7-----7--5--7----------------------------------------------|
----------------------------------------------------------------------|
----------------------------------------------------------------------|

----------------------------------------------------------------------|
-------------------3--------------------------------3-----------------|
-------------------2--------------------------------2-----------------|
-7-5-7-10-10-5-7---0--------------7-5-7-10-10-5-7---0---10-12---------|
-7-5-7-10-10-5-7---0--------------7-5-7-10-10-5-7---0---10-12---------|
-7-5-7-10-10-5-7---0---10h12p10---7-5-7-10-10-5-7---0---10-12---------|

----------------------------------------------------------------------|
----------------------3-----------------------------------------------|
----------------------2-----------------------------------------------|
-----3----------------0-----------------------------------------------|
-----3----------------0-----------------------------------------------|
-----3----------------0-----------------------------------------------|

----------------------------------------------------------------------|
-------------------3--------------------------------3-----------------|
-------------------2--------------------------------2-----------------|
-7-5-7-10-10-5-7---0--------------7-5-7-10-10-5-7---0---10-12---------|
-7-5-7-10-10-5-7---0--------------7-5-7-10-10-5-7---0---10-12---------|
-7-5-7-10-10-5-7---0---10h12p10---7-5-7-10-10-5-7---0---10-12---------|

----------------------------------------------------------------------|
----------------------3-----------------------------------------------|
----------------------2-----------------------------------------------|
-----3----------------0-----------------------------------------------|
-----3----------------0-----------------------------------------------|
-----3----------------0-----------------------------------------------|

----------------------------------------------------------------------|
------3------------------------2--------------------------------------|
------2-----------------7------2--------------------------------------|
--7---0----5--10-----5--7--7---0---5--10------------------------------|
--7---0----5--10-----5--5--7---0---5--10------------------------------|
--7---0----5--10-----5-----7---0---5--10------------------------------|

-------------------------------------------------|
-------------------------------------------------|
-12h14-12h14-12h14-12h14-12h14-12h14-12h14-12h14-|
-------------------------------------------------|
-------------------------------------------------|
-------------------------------------------------|

-----------------------------------------------------------------------------------|
-----------------------------------------------------------------------------------|
-12h14-12h14-12h14-12h14-12h14-12h14-12h14-12h14-----12-14-14-12-14-17-14-12-14-12-|
-------------------------------------------------14--------------------------------|
-----------------------------------------------------------------------------------|
-----------------------------------------------------------------------------------|

--------------------|
--------------------|
--------------------|
-14-12-12-14-14-----|
----------------12--|
--------------------|

------------------------------------------------------|
------------------------------------------------------|
--7--9--5--7--9--5--7--9------------------------------|
-------------------------7----------------------------|
------------------------------------------------------|
------------------------------------------------------|






 2. Fight For All The Wrong Reasons



Intro -
D|-------------------------------------------------------------|
A|-3--------6--------------------------------------------------|
F|-2---x-x--5--------------------------------------------------|
C|-0---x-x--3----------3-------5----10-------------------------|
G|-0---x-x--3--3-5-3-5---5-3---5----10--8-10-8-10brb-8---------|
C|-0---x-x-—3------------------5----10-------------------------|

Verse:
D||--5-5-------8-8---------------5-5----------------------------|
A||------6---6-----5-6-5-6-5-6-8-----6---8-8-5-6-5--------------|
F||--------7---------------------------7-----------7-5-7--------|
C||-------------------------------------------------------------|
G||-------------------------------------------------------------|
C||-------------------------------------------------------------|

Then at the ending
D|------------------------------------|
A|------------------------------------|
F|------------------------------------|
C|--------------3-5-3--5-7-5-3--------|
G|------------------------------------|
C|------------------------------------|

Right before Chorus
D|-------------------|
A|3-3--3-3-----------|
F|2-2--2-2--5-5--5-5-|
C|0-0--0-0--5-5--5-5-|
G|0-0--0-0--3-3--3-3-|
C|0-0--0-0-----------|

Chorus
D|-------------------------------------------------------------|
A|-3--------6--------------------------------------------------|
F|-2---x-x--5--------------------------------------------------|
C|-0---x-x--3----------3-------5----10-------------------------|
G|-0---x-x--3--3-5-3-5---5-3---5----10--8-10-8-10brb-8---------|
C|-0---x-x-—3------------------5----10-------------------------|

Bridge

D|----------------------|
A|--3-3--3-3------------|
F|--2-2--2-2--5-5--5-5--|
C|--0-0--0-0--5-5--5-5--|
G|--0-0--0-0--3-3--3-3--|
C|--0-0--0-0------------|

D|---------------------------------------------------------|
A|----------3-3--3-3------------3-3--3-3-------------------|
F|----------2-2--2-2--5-5--5-5--2-2--2-2--5-5--5-5---------|
C|----------0-0--0-0--5-5--5-5--0-0--0-0--5-5--5-5---------|
G|----------0-0--0-0--3-3--3-3--0-0--0-0--3-3--3-3---------|
C|-0-0-2-3--0-0--0-0------------0-0--0-0-----------0-0-2-3-|


D|----------------------------------------------------------------------|
A|----------------------------------------------------------------------|
F|----------------------------------------------------------------------|
C|----------------------------------------------------------------------|
G|--------------8-10-----3-5-----10-8-----7-8-----8-10-----3-5-----10-8-|
C|-0-0-2-3--0-0------0-0-----0-0------0-0-----0-0------0-0-----0-0------|


D|-------------------------------------------------|
A|----------3-3--3-3------------3-3--3-3-----------|
F|----------2-2--2-2--5-5--5-5--2-2--2-2--5-5--5-5-|
C|----------0-0--0-0--5-5--5-5--0-0--0-0--5-5--5-5-|
G|----------0-0--0-0--3-3--3-3--0-0--0-0--3-3--3-3-|
C|----------0-0--0-0------------0-0--0-0-----------|




3.Photograph

Verse and Pre-chorus
E|-0----0----0-0-----0-----0-0-0--0-|-0----0----0-0-----0-----0-0-0--0-|
B|-0----0----0-0-----0-----0-0-0--0-|-0----0----0-0-----0-----0-0-0--0-|
G|-9----9----9-9-----9-----9-9-9--8-|-8----8----8-8-----8-----8-8-8--0-|
D|-9----9----9-9-----9-----9-9-9--9-|-9----9----9-9-----9-----9-9-9--0-|
A|-7----7----7-7-----7-----7-7-7--9-|-9----9----9-9-----9-----9-9-9--0-|
E|-0----0----0-0-----0-----0-0-0--7-|-7----7----7-7-----7-----7-7-7----|


E|-0----0-------0--------0----0--0--0-----0-|
B|-0----0-------0--------0----0--0--0-----0-|
G|-4----4-------4--------4----4--4--4-----4-|
D|-5----5-------5--------5----5--5--5-----5-|
A|-5----5-------5--------5----5--5--5-----5-|
E|-3----3-------3--------3----3--3--3-----3-|

E|-0-----0------0--0------0----0--0--0--0--0-|
B|-0-----0------0--0------0----0--0--0--0--0-|
G|-6-----6------6--6------6----6--6--6--9--9-|
D|-7-----7------7--7------7----7--7--7--9--9-|
A|-7-----7------7--7------7----7--7--7--7--7-|
E|-5-----5------5--5------5----5--5--5--0--0-|

Chorus

E|-0----0------0---0-|-0----0-----0---0--|
B|-0----0------0---0-|-0----0-----0---0--|
G|-9----9------9---8-|-8----8-----8---11-|
D|-9----9------9---9-|-9----9-----9---12-|
A|-7----7------7---9-|-9----9-----9---12-|
E|-0----0------0---7-|-7----7-----7---10-|

Middle Bit

E|-0----0--------0----0---------0-----0---0---0---0---0--|
B|-0----0--------0----0---------0-----0---0---0---0---0--|
G|-9----9--------9----9---------9-----9---9---9---9---9--|
D|-10---10-------10---10--------10----10--10--10--10--10-|
A|-10---10-------10---10--------10----10--10--10--10--10-|
E|-8----8--------8----8---------8-----8---8---8---8---8--|

E|-0----0--------0----0---------0-----0---0---0---0---0--|
B|-0----0--------0----0---------0-----0---0---0---0---0--|
G|-11---11-------11---11--------11----11--11--11--11--11-|
D|-12---12-------12---12--------12----12--12--12--12--12-|
A|-12---12-------12---12--------12----12--12--12--12--12-|
E|-10---10-------10---10--------10----10--10--10--10--10-|

E|-0---0---------0----0-|-0---0--------0----0-----0-|
B|-0---0---------0----0-|-0---0--------0----0-----0-|
G|-9---9---------9----8-|-8---8--------8----8-----4-|
D|-9---9---------9----9-|-9---9--------9----9-----5-|
A|-7---7---------7----9-|-9---9--------9----9-----5-|
E|-0---0---------0----7-|-7---7--------7----7-----3-|

E|-0---0--------0---0---0-|-0---0---------0---0---0-|
B|-0---0--------0---0---0-|-0---0---------0---0---0-|
G|-4---4--------4---4---6-|-6---6---------6---9---9-|
D|-5---5--------5---5---7-|-7---7---------7---9---9-|
A|-5---5--------5---5---7-|-7---7---------7---7---7-|
E|-3---3--------3---3---5-|-5---5---------5---0---0-|

E|-------------0--------|------0--------|--0------------|
B|----------------7-----|---------7-----|--0------------|
G|-----------9--9-------|-----9-9-------|--11-----------|
D|---------9-----9------|-9--9---9------|--12-----------|
A|-------7--------------|-9-------------|--12-----------|
E|----------------------|-7-------------|--10-----------|




4.Animals

(intro)
HEAVY DISTORTION
e|------------------------|
B|------------------------|
G|-7--------5r------------|
D|-7-0r--3r-5r-5-5-5r-----|
A|-5-0r--3r-3r-5-5-5r-----|
D|---0r--3r----5-5-5r-----|

(pre-verse)
e|-------------------------------------------------------|
B|-------------------------------------------------------|
G|-7-7r-----5r---------3-3/5-5/7-7-------5r--------------|
D|-7-7r--3r-5r-5-5-5r--3-3/5-5/7-7-0--3r-5r-5-5-5r-------|
A|-5-5r--3r-3r-5-5-5r--1-1/3-3/5-5-0--3r-3r-5-5-5r-------|
D|-------3r----5-5-5r--------------0--3r----5-5-5r-------|

(verse) – “I’m driving past your house…”
e|-------------------------------------------------------------------|
B|-------------------------------------------------------------------|
G|------------------------------------------------5-5r--5-5-5r--5----|
D|--0r--0-0-0r--0-0-0r--0-0-0r--0-5-5r--5-5-5r--5-5-5r--5-5-5r--5----|
A|--0r--0-0-0r--0-0-0r--0-0-0r--0-5-5r--5-5-5r--5-3-3r--3-3-3r--3----|
D|--0r--0-0-0r--0-0-0r--0-0-0r--0-5-5r--5-5-5r--5--------------------|

(chorus) – “Screaming no!”
e|-----------------------------------|
B|-----------------------------------|
G|-7--------5r---------3-3/5-5/7-7---|
D|-7-0r--3r-5r-5-5-5r--3-3/5-5/7-7---|
A|-5-0r--3r-3r-5-5-5r--1-1/3-3/5-5---|
D|---0r--3r----5-5-5r----------------|

(post-chorus) – “So come on baby, get in…”
e|-----------------------------|
B|-----------------------------|
G|---x--7--------5r------------|
D|---x--7-0r--3r-5r-5-5-5r-----|
A|---x--5-0r--3r-3r-5-5-5r-----|
D|---x----0r--3r----5-5-5r-----|

(outro)
e|--------------------------------------------------------------------|
B|--------------------------------------------------------------------|
G|--------------------------------------------------------------------|
D|-----------------------------------0r-------------------------------|
A|-----------------------------------0r-------------------------------|
D|--10h12p0-10h12p0-10h12p0-10h12p0--0r-------------------------------|





5.Savin Me

Intro/Verse (acoustic) "Prison gates won't open up for me"
D|--------------------------------------------------------------------------|
A|--------------------------------------------------------------------------|
F|-----0---------0-------0---------0-------0---------0-------0---------0----|
C|---7---------7---7---7---7-----3---0---7---------7---7---7---7-----7---0--|
G|--------------------------------------------------------------------------|
C|-8-----0-3-3-------5-------0-0-------8-----0-3-3-------5-------5-5--------|

Pre-Chorus "Come please I'm calling"
D|-------------------------------|
A|-------------------------------|
F|--------0------------0---------|
C|-----7------------7-----7------|
G|-------------------------------|
C|--8--------0-3-3---------------|

Chorus "Show me what it's like to be the last one standing" 
D|--5--5--5--5------------------3--3--3--3------------------|
A|--5--5--5--5----6--6--6--6----3--3--3--3----8--8--8--8----|
F|--7--7--7--7----5--5--5--5----5--5--5--5----7--7--7--7----| 
C|--7--7--7--7----3--3--3--3----5--5--5--5----5--5--5--5----|
G|--5--5--5--5----3--3--3--3----3--3--3--3----5--5--5--5----|
C|----------------3--3--3--3------------------5--5--5--5----|

Chorus (dist.) "Say it for me, say it to me"
D|-------------------------------------------------------|
A|-------------------------------------------------------|
F|-10-10-10-10----5--5--5--5----7--7--7--7----7----10----| 
C|--8--8--8--8----3--3--3--3----5--5--5--5----7----10----|
G|--8--8--8--8----3--3--3--3----5--5--5--5----5-----8----|
C|--8--8--8--8----3--3--3--3----5--5--5--5----0----------|
                                            

D|--------------------------------------|
A|--------------------------------------|
F|-10-10-10-10-----5--5--5--5-----7-----| 
C|--8--8--8--8-----3--3--3--3-----5-----|
G|--8--8--8--8-----3--3--3--3-----5-----|
C|--8--8--8--8-----3--3--3--3-----5-----|
                                 
Solo
D|-------------------------------------------------------------------|
A|-------------------------------------------------------------------|
F|-------------------------------------------------------------------|
C|--/8p7----------/8p7----------/8p7-------------/7-5-/5-3-5---------|
G|--------10-8-10-------10-8-10-------10-8-10-5-8--------------------|
C|-------------------------------------------------------------------|

D|-------------------------------------------------------------------|
A|-------------------------------------------------------------------|
F|-------------------------------------------------------------------|
C|--/8p7-------------/7-5-7-7-7-7/8-8-8-8/10-10-10-10/12-12-12-------|
G|-------10-8-10-5-8-------------------------------------------------|
C|-------------------------------------------------------------------|

D|-------------------------------------------------------------------|
A|--/11p10-----------/11p10------------/11p10------------------------|
F|----------12-10-12----------12-10-12---------12-10-12-7-10---------|
C|-------------------------------------------------------------------|
G|-------------------------------------------------------------------|
C|-------------------------------------------------------------------|

D|---------------------------------------------------15--------------|
A|--/10-8-/8-6-8/10-10-10-10/11-11-11-13h15p13-13--------------------|
F|------------------------------------------------15-----------------|
C|-------------------------------------------------------------------|
G|-------------------------------------------------------------------|
C|-------------------------------------------------------------------|

Bridge
D|------------------------------------------------|
A|------------------------------------------------|
F|--2-2-2-2---5-5-5-5---12-12-12-12---7-7-7-7-----| 
C|--0-0-0-0---3-3-3-3---10-10-10-10---5-5-5-5-----|
G|--0-0-0-0---3-3-3-3---10-10-10-10---5-5-5-5-----|
C|--0-0-0-0---3-3-3-3---10-10-10-10---5-5-5-5-----|







6.Far Away

   INTRO
E||--------------------------|--------------------------|
B||--------0--------0-----0--|--------0--------0-----0--|
G||--------------3-----3-----|--------------3-----3-----|
D||-----4-----4--------------|-----4-----4--------------|
A||--2-----------------------|--------------------------|
E||--------------------------|--2-----------------------|

--------------------------|--------------------------|
--------0--------0-----0--|--------0-----2-----------|
--------------3-----3-----|-----------------4-----4--|
-----4-----4--------------|-----4-----4--------4-----|
--------------------------|--------------------------|
--4-----------------------|--0-----------------------|

VERSE 1
              This time                This place
--------------------------|--------------------------|
--------0--------0-----0--|--------0--------0-----0--|
--------------3-----3-----|--------------3-----3-----|
-----4-----4--------------|-----4-----4--------------|
--2-----------------------|--------------------------|
--------------------------|--2-----------------------|


              Misused                   Mistakes
--------------------------|--------------------------|
--------0--------0-----0--|--------0-----2-----------|
--------------3-----3-----|-----------------4-----4--|
-----4-----4--------------|-----4-----4--------4-----|
--------------------------|--------------------------|
--4-----------------------|--0-----------------------|


             Too long                 Too late
--------------------------|--------------------------|
--------0--------0-----0--|--------0--------0-----0--|
--------------3-----3-----|--------------3-----3-----|
-----4-----4--------------|-----4-----4--------------|
--2-----------------------|--------------------------|
--------------------------|--2-----------------------|


            Who was I          to make you wait
--------------------------|--------------------------|
--------0--------0-----0--|--------0-----2-----------|
--------------3-----3-----|-----------------4-----4--|
-----4-----4--------------|-----4-----4--------4-----|
--------------------------|--------------------------|
--4-----------------------|--0-----------------------|

           Just one chance           Just one breath
--------------------------|--------------------------|
--------0--------0-----0--|--------0--------0-----0--|
--------------3-----3-----|--------------3-----3-----|
-----4-----4--------------|-----4-----4--------------|
--2-----------------------|--------------------------|
--------------------------|--2-----------------------|

           Just in case        there’s just one left
--------------------------|--------------------------|
--------0--------0-----0--|--------0-----2-----------|
--------------3-----3-----|-----------------4-----4--|
-----4-----4--------------|-----4-----4--------4-----|
--------------------------|--------------------------|
--4-----------------------|--0-----------------------|


         ‘Cause you know,           you know
--------------------------|--------------------------|
--------------4-----------|--------------4-----------|
--------6--------6-----6--|--------6--------6-----6--|
-----6-----6--------6-----|-----6-----6--------6-----|
--4-----------------------|--4-----------------------|
--------------------------|--------------------------|

love you                  I have        loved you all along
--2----2----2----2--2--|--4----4----4----4--4--|--0----0----0----0--0--|
--2----2----2----2--2--|--4----4----4----4--4--|--0----0----0----0--0--|
--3----3----3----3--3--|--4----4----4----4--4--|--1----1----1----1--1--|
--4----4----4----4--4--|--6----6----6----6--6--|--2----2----2----2--2--|
--4----4----4----4--4--|--6----6----6----6--6--|--2----2----2----2--2--|
--2----2----2----2--2--|--4----4----4----4--4--|--0----0----0----0--0--|

--2----2----2----2--2--|--4----4----4----4--4--|--0----------------|
--2----2----2----2--2--|--4----4----4----4--4--|--0----------------|
--3----3----3----3--3--|--4----4----4----4--4--|--1----------------|
--4----4----4----4--4--|--6----6----6----6--6--|--2----------------|
--4----4----4----4--4--|--6----6----6----6--6--|--2----------------|
--2----2----2----2--2--|--4----4----4----4--4--|--0----------------|





7.Next Contestant
Guitar 1 (flanger)(Palm Muted)

D |--------------------------------------------|
A |--------------------------------------------|
F |--------9---7---7-9-------9---7---7-9-------|
C |------9---9---9---------9---9---9-----------|
G |----7-----------------7---------------------|
C |--------------------------------------------|
     

guitar 2
D |-----------------------------------------|
A |---10/12-\8~---10~-10/12-\8~--8/10-10~---|
F |-------------9---------------------------|
C |-----------------------------------------|
G |-----------------------------------------|
C |-----------------------------------------|

D |------------------------|
A |------------------------|
F |------------------------|
C |---5-----7--------------|
G |---5-----7--------------|
C |---5-----7--------------|

D |-------------------------|-----------------------------------|
A |-------------------------|-----------------------------------|
F |-------------------------|-----------------------------------|
C |--0h2h5-2--5-5--0-0--7-7-|--0h2h5-2--5-5--0-0-0-0-7-7-7-7----|
G |--0h2h5-2--5-5--0-0--7-7-|--0h2h5-2--5-5--0-0-0-0-7-7-7-7----|
C |--0h2h5-2--5-5--0-0--7-7-|--0h2h5-2--5-5--0-0-0-0-7-7-7-7----|

D |-------------------------------------------------|
A |-------------------------------------------------|
F |-------------------------------------------------|   x 2
C |---2-2-2-2--5-5-5-5--0-0-0-0--7777-/12121212-----|
G |---2-2-2-2--5-5-5-5--0-0-0-0--7777-/12121212-----|
C |---2-2-2-2--5-5-5-5--0-0-0-0--7777-/12121212-----|   


D |---------------------|
A |---------------------|
F |---------------------|
C |---5-5---7-7---------|
G |---5-5---7-7---------|
C |---5-5---7-7---------

                                    
D |-----------------------------------------|
A |-----------------------------------------|
F |-----------------------------------------|
C |-----------------------------------------|
G |-----------------------------------------|
C |--0h2h5p2-0h2h5p2—0h2h5p2-0h2h5-7r-5r----|

D |-----------------------------------------------|
A |-----------------------------------------------|
D |-----------------------------------------------|
C |-----------------------------------------------|
G |--------------------------------5--------------|
C |--0h2h5p2-0h2h5p2—0h2h5p2-0h2h5---7-5-2--7-5-0-|
    

D |--------------------------------------------------|
A |--------------------------------------------------|  
F |--------------------------------------------------|    
C |--------------------------------------------------|  
G |--0-2--------0-2-5-7--0-2-----5-------------------|
C |--0-2-/5-2r--0-2-5-7--0-2-/5----7-5-2--7-5-0(~)---|

D |-------------------------|-----------------------------------|
A |-------------------------|-----------------------------------|
F |-------------------------|-----------------------------------|
C |--0h2h5-2--5-5--0-0--7-7-|--0h2h5-2--5-5--0-0-0-0-7-7-7-7----|
G |--0h2h5-2--5-5--0-0--7-7-|--0h2h5-2--5-5--0-0-0-0-7-7-7-7----|
C |--0h2h5-2--5-5--0-0--7-7-|--0h2h5-2--5-5--0-0-0-0-7-7-7-7----|

D |------------------------------------------------|
A |------------------------------------------------|
F |------------------------------------------------|   x 2
C |---2-2-2-2--5-5-5-5--0-0-0-0--7777-12121212-----|
G |---2-2-2-2--5-5-5-5--0-0-0-0--7777-12121212-----|
C |---2-2-2-2--5-5-5-5--0-0-0-0--7777-12121212-----|    

D |---------------------|
A |---------------------|
F |---------------------|
C |---5-5---7-7---------|
G |---5-5---7-7---------|
C |---5-5---7-7---------|








8. Side of a Bullet

C#||intro-----------------|-------------------------|----------------------|
G#||----------------------|-------------------------|----------------------|
E ||-------------------7--|-------------------------|----------5----------7|
B ||-------------------5--|-------------------------|----------3----------5|
F#||-0--0------0--0----3--|--0--0----5--------6-----|--5--0-------0--0-----|
B ||-0--0------0--0-------|--0--0----5--3--5--6--3--|-----0-------0--0-----|
                                                                           
-------------------------|------------------------|------------------------|
-------------------------|------------------------|------------------------|
-------------------------|----------5-------------|------------------------|
-------------------------|----------3----------5--|------------------------|
--0--0----5--------6-----|--5--0-------0--0----3--|--0--0----5--------6----|
--0--0----5--3--5--6--3--|-----0-------0--0-------|--0--0----5--3--5--6--3-|

                                                                         
------------------------|--------------------------|--verse-------------|
------------------------|--------------------------|--------------------|
----------5----------7--|--------------------------|--------------------|
----------3----------5--|--------------------------|--------------------|
--5--0-------0--0-------|--0-----------3--------5--|--0--0--------------|
-----0-------0--0-------|--0--6--5--3-----5--3-----|--0--0--------------|
                                                                      
-------------------------|--------------------|-------------------------|
-------------------------|--------------------|-------------------------|
-------------------------|--------------------|-------------------------|
-------------------------|--------------------|-------------------------|
-------------3--------5--|--0--0--------------|-------------3--------5--|
----6--5--3-----5--3-----|--0--0--------------|----6--5--3-----5--3----

                       
---------------------------|--------------------------|
---------------------------|--------------------------|
---------------------------|--------------------------|
---------------------------|--------------------------|
--0--0----0-0--0-0--0------|--0-----------3--------5--|
--0--0----0-0--0-0--0--10--|--0--6--5--3-----5--3-----|
                                       
---------------------------|-------------------------|---------------------|
---------------------------|-------------------------|---------------------|
---------------------------|-------------------------|---------------------|
---------------------------|-------------------------|---------------------|
--0--0----0-0--0-0--0------|--0-----------3--------5-|--0--0---------0-----|
--0--0----0-0--0-0--0--10--|--0--6--5--3-----5--3----|--0--0----3~~--0---3~|
                                                     
-------------------------|-----------------------|-------------------------|
-------------------------|-----------------------|-------------------------|
-------------------------|-----------------------|-------------------------|
-------------------------|-----------------------|-------------------------|
-------------3--------5--|--0--0---------0-------|-------------3--------5--|
----6--5--3-----5--3-----|--0--0----3~~--0----3~~|----6--5--3-----5--3-----|







9.If everyone cared

Verse/Intro(/After chorus with distorsion (muted))

e|-------------------------------------------------------------------------|
B|-------------------------------------------------------------------------|
G|----------1----------------4---------------------------------1-----------|
D|------4-------4--------7--------7-------2----4----2------4-------4-------|
A|----4---4---4--------7---7----7-------2---2-----2-------4---4---4--------|
E|--2----------------5----------------0----------------2-------------------|

Singing Amen...

e|--------------------------9---------9------------------------------------|
B|------------10-9----------9---------9------------------------------------|
G|---------11-------------9--------11--------------------------------------|
D|------11--------------9-------11-----------------------------------------|
A|----9---------------7-------9--------------------------------------------|
E|-------------------------------------------------------------------------|

(the second accord is not sure...maybe the third is that, twice)

Chorus

e|-----------------------------------------| 
B|-----------------------------------------| 
G|-----------------------------------------| 
D|-4-4----7-7----2-2----4-4----7-7----2~---|
A|-4-4----7-7----2-2----4-4----7-7----2~---|
E|-2-2----5-5----0-0----2-2----5-5----0~---|


Solo

E|--------------------------------------------------------------|
B|------------2--------------2--------------5-s7--7-s10---------|
G|-----2--4-----------2--4------4--2--4-s6--------------------14|
D|--4-------------4---------------------------------------s16---|
A|--------------------------------------------------------------|
D|--------------------------------------------------------------|

E|------------------------------|
B|----14--------------14--------|
G|16----------14--16--------16~~|
D|--------16--------------------|
A|------------------------------|
D|------------------------------|


After solo verse

e|-----------------------------------7----------9-----------9--------------|
B|-----------10-9----------14-------------------------------------------14-|
G|--------11------------14---------9---------11----------11----------14----|
D|-----11------------14----------9--------11----------11----------14-------|
A|---9------------12-----------7--------9-----------9----------12----------|
E|-------------------------------------------------------------------------|


e|--------7------|
B|---------------|
G|------9--------|
D|----9----------|
A|--7------------|
E|---------------|








10.Someone that youre with

Verse:
e|-------------------------------------------------------------------------|
B|-------------------------------------------------------------------------|
G|-------------------------------------------------------------------------|
D|-------------------------------------------------------------------------|
A|---3h5------3h5------3h5------3h5------3h5------3h5------3h5------3h5----|
D|-------0-0------0-0------0-0------0-0------5-5------5-5------5-5------5-5|

e|-----------------------------------------------------------------------------|
B|-----------------------------------------------------------------------------|
G|-----------------------------------------------------------------------------|
D|-----------------------------------------------------------------------------|
A|---3h5-------3h5-------3h5-------3h5-------3h5------3h5------3h5------3h5----|
D|-------3-3-------3-3-------5-5-------5-5-------0-0------0-0------0-0------0-0|
(Play 2 Times)

Prechorus:
e|-------------------------------------------------------------------------|
B|-------------------------------------------------------------------------|
G|---3-3--3-3-3--3-3-3--3-3-3----------------------------------------------|
D|---3-3--3-3-3--3-3-3--3-3-3--5-5-5--5-5-5--5-5-5--5-5-5--3-3-3--3-3-3----|
A|---1-1--1-1-1--1-1-1--1-1-1--5-5-5--5-5-5--5-5-5--5-5-5--3-3-3--3-3-3----|
D|-----------------------------5-5-5--5-5-5--5-5-5--5-5-5--3-3-3--3-3-3----|

e|-------------------------------------------------------------------------|
B|-------------------------------------------------------------------------|
G|----------------5-5-5--5-5-5---------------------------------------------|
D|--3-3-3--3-3-3--5-5-5--5-5-5---3-3-3-3-3-3-3-3-3-------------------------|
A|--3-3-3--3-3-3--3-3-3--3-3-3---3-3-3-3-3-3-3-3-3-------------------------|
D|--3-3-3--3-3-3-----------------3-3-3-3-3-3-3-3-3-------------------------|

Chorus: (Listen to the song to get the strum pattern, These are just the chords.)
e|-------------------------------------------------------------------------|
B|-------------------------------------------------------------------------|
G|---------------5---------------------------------------------------------|
D|---0-----5-----5-----5-----0---------------------------------------------|
A|---0-----5-----3-----5-----0---------------------------------------------|
D|---0-----5-----------5-----0---------------------------------------------|
(Play 2X)

Post Chorus Thinger:
e|-------------------------------------------------------------------------|
B|-------------------------------------------------------------------------|
G|-------------------------------------------------------------------------|
D|---3-3-3-3-3-3-3-3--5-5-5-5-5-5-5-5--------------------------------------|
A|---3-3-3-3-3-3-3-3--5-5-5-5-5-5-5-5-----3h5-----3h5-----3h5-----3h5------|
D|---3-3-3-3-3-3-3-3--5-5-5-5-5-5-5-5---------0-0-----0-0-----0-0-----0-0--|
(Play twice)

2nd part of Post Chorus Thinger (Again, listen to the song for the strum pattern
e|-------------------------------------------------------------------------|
B|-------------------------------------------------------------------------|
G|--3--5--------3--5--7----------------------------------------------------|
D|--3--5--3--5--3--5--7----------------------------------------------------|
A|--1--3--3--5--1--3--5----------------------------------------------------|
D|--------3--5-------------------------------------------------------------|

e|-------------------------------------------------------------------------|
B|-------------------------------------------------------------------------|
G|---7-----5-----7---------------------------------------------------------|
D|---7--5--5--5--7---------------------------------------------------------|
A|---5--5--3--5--5---------------------------------------------------------|
D|------5-----5------------------------------------------------------------|





11.Rockstar

Intro/Verse 1:
 clean


Guitar 1&2

D-------------------------------------------------------------------------------|
A-------------------------------------------------------------------------------|
F----------------------7--7--7-7-7--7-7-----------------------------------------|
C---7--7--7-7-7--7-7---7--7--7-7-7--7-7---5--5--5-5-5--5-5---7--7--7-7-7--7-7---|
G---7--7--7-7-7--7-7---5--5--5-5-5--5-5---5--5--5-5-5--5-5---7--7--7-7-7--7-7---|
C---7--7--7-7-7--7-7----------------------5--5--5-5-5--5-5---7--7--7-7-7--7-7---|

At the ending:

D----------------------------------------------|
A----------------------------------------------|
F-------------------------------------7~-------|
C------10--10--10--10-10-10--10-10----7~-------|
G------10--10--10--10-10-10--10-10----5~-------|
C------10--10--10--10-10-10--10-10-------------|

Chorus:
 Light Distortion


Guitar 1

D--------------------------------------------------------------------|
A--------------------------------------------------------------------|
F---------------------------7-7-7-7---10-10-10-10--------------------|
C---7-7-7-7---10-10-10-10---7-7-7-7---10-10-10-10---5-5-5-5----------|
G---7-7-7-7---10-10-10-10---5-5-5-5---8—-8--8--8----5-5-5-5----------|
C---7-7-7-7---10-10-10-10---------------------------5-5-5-5----------|


Guitar 2

D--------------------------------------------------------------------|
A--------------------------------------------------------------------|
F---------------------------7-7-7-7---10-10-10-10---12-12-12-12------|
C---7-7-7-7---10-10-10-10---7-7-7-7---10-10-10-10---12-12-12-12------|
G---7-7-7-7---10-10-10-10---5-5-5-5---8—-8--8--8----10-10-10-10------|
C---7-7-7-7---10-10-10-10--------------------------------------------|

Ending Chorus:

D--------------------|  2x
A--------------------|
F---------7~---------|
C---10~---7~---7~----|
G---10~---5~---7~----|
C---10~--------7~----|

Verse 2:
 Clean


Guitar 1&2

D-------------------------------------------------------------------------------|
A-------------------------------------------------------------------------------|
F----------------------7--7--7-7-7--7-7-----------------------------------------|
C---7--7--7-7-7--7-7---7--7--7-7-7--7-7---5--5--5-5-5--5-5---7--7--7-7-7--7-7---|
G---7--7--7-7-7--7-7---5--5--5-5-5--5-5---5--5--5-5-5--5-5---7--7--7-7-7--7-7---|
C---7--7--7-7-7--7-7----------------------5--5--5-5-5--5-5---7--7--7-7-7--7-7---|

At the ending:

D----------------------------------------------|
A----------------------------------------------|
F-------------------------------------7~-------|
C------10--10--10--10-10-10--10-10----7~-------|
G------10--10--10--10-10-10--10-10----5~-------|
C------10--10--10--10-10-10--10-10-------------|


Chorus:
 Light Distortion


Guitar 1

D--------------------------------------------------------------------|
A--------------------------------------------------------------------|
F---------------------------7-7-7-7---10-10-10-10--------------------|
C---7-7-7-7---10-10-10-10---7-7-7-7---10-10-10-10---5-5-5-5----------|
G---7-7-7-7---10-10-10-10---5-5-5-5---8—-8--8--8----5-5-5-5----------|
C---7-7-7-7---10-10-10-10---------------------------5-5-5-5----------|


Guitar 2

D--------------------------------------------------------------------|
A--------------------------------------------------------------------|
F---------------------------7-7-7-7---10-10-10-10---12-12-12-12------|
C---7-7-7-7---10-10-10-10---7-7-7-7---10-10-10-10---12-12-12-12------|
G---7-7-7-7---10-10-10-10---5-5-5-5---8—-8--8--8----10-10-10-10------|
C---7-7-7-7---10-10-10-10--------------------------------------------|


Ending Chorus:

D--------------------|  1x
A--------------------|
F---------7~---------|
C---10~---7~---7~----|
G---10~---5~---7~----|
C---10~--------7~----|

Bridge:

„I wanna sing those Songs...“
D--------------------------------------------------------|
A--------------------------------------------------------|
F--------------------------------------------------------|
C----10-10-10-10-10---5-5-5-5-5---10-10-10-10-10~---5~---|
G----10-10-10-10-10---5-5-5-5-5---10-10-10-10-10~---5~---|
C----10-10-10-10-10---5-5-5-5-5---10-10-10-10-10~---5~---|


D-------------------------------------------------------------------------------|
A-------------------------------------------------------------------------------|
F----------------------7--7--7-7-7--7-7-----------------------------------------|
C---7--7--7-7-7--7-7---7--7--7-7-7--7-7---5--5--5-5-5--5-5---7--7--7-7-7--7-7---|
G---7--7--7-7-7--7-7---5--5--5-5-5--5-5---5--5--5-5-5--5-5---7--7--7-7-7--7-7---|
C---7--7--7-7-7--7-7----------------------5--5--5-5-5--5-5---7--7--7-7-7--7-7---|

Ending:
 Light Distortion


Guitar 1

D--------------------------------------------------------------------|
A--------------------------------------------------------------------|
F---------------------------7-7-7-7---10-10-10-10--------------------|
C---7-7-7-7---10-10-10-10---7-7-7-7---10-10-10-10---5-5-5-5----------|
G---7-7-7-7---10-10-10-10---5-5-5-5---8—-8--8--8----5-5-5-5----------|
C---7-7-7-7---10-10-10-10---------------------------5-5-5-5----------|


Guitar 2

D--------------------------------------------------------------------|
A--------------------------------------------------------------------|
F---------------------------7-7-7-7---10-10-10-10---12-12-12-12------|
C---7-7-7-7---10-10-10-10---7-7-7-7---10-10-10-10---12-12-12-12------|
G---7-7-7-7---10-10-10-10---5-5-5-5---8—-8--8--8----10-10-10-10------|
C---7-7-7-7---10-10-10-10--------------------------------------------|
comments
We did not receive enough feedback on this tab! Please rate:
print report bad tab
1 2 3 4 5
2 comments total.
0 reply
|<guitarhero>| wrote on July 19 2007, 02:19 pm

good tab,but ive seen these tabs before,i think you took the animals tab from somebody else,but still really good!

0 reply
Hinder11 wrote on September 30 2007, 03:54 pm

yeah you took most of these tabs from other people.

I want to post or [tab]
guest
You may want to rate the tab now too:
select rating
Please do not post tabs as comments. Select "correction" instead!