Oops, an error
Loading. Please wait.

Animals Tab

ver6
ver6
More versions @911Tabs.com
7,943 views 24 this week
no commentswrite comment
1 2 3 4 5
excellent!
x 2
Autoscroll
+/-
esc
set tempo
stop
Difficulty
Tuning
novice
D A D G B E
WARNING: You are trying to view
                                    content from Ultimate-Guitar.com
                                    in an unauthorized application,
                                    which is prohibited.

                                    Please use an official Ultimate
                                    Guitar Tabs application for iPhone,
                                    iPad or Android to access legitimate
                                    chords, guitar, bass, and drum tabs
                                    from Ultimate-Guitar.com database.

                                    Type "ultimate guitar tabs" in Apple
                                    App Store's or Android Market's
                                    search to find the application.
===--Animals--===
===Nickelback====

-----------------
|Tab by GruntGuy|
-----------------

---
Key
---

/ = Slide up
\ = Slide down

This is a reasonably fast paced song, so watch your timing. Might take a little while to 
the hang of, but it's pretty easy and sounds good.
Good luck

INTRO
-------

e|------------------|
b|------------------|
g|-7-------5--------|
D|-7-0--3--5--5-5-5-|
A|-5-0--3--3--5-5-5-|
D|---0--3-----5-5-5-|

e|------------------|
b|------------------|
g|-7-------5--------|
D|-7-0--3--5--5-5-5-|
A|-5-0--3--3--5-5-5-|
D|---0--3-----5-5-5-|

e|------------------|
b|------------------|
g|-7-------5--------|
D|-7-0--3--5--5-5-5-|
A|-5-0--3--3--5-5-5-|
D|---0--3-----5-5-5-|

e|------------------|
b|------------------|
g|-7-------5--------|
D|-7-0--3--5--5-5-5-|
A|-5-0--3--3--5-5-5-|
D|---0--3-----5-5-5-|


Bridge
-------

e|----------------------------------------------|
b|----------------------------------------------|
g|-7-------5---------3-3/5-5/7--7-------5-------|
D|-7-0--3--5--5-5-5--3-3/5-5/7--7-0--3--5-5-5-5-|
A|-5-0--3--3--5-5-5--1-1/3-3/5--5-0--3--3-5-5-5-|
D|---0--3-----5-5-5---------------0--3----5-5-5-|

e|----------------------------------------------|
b|----------------------------------------------|
g|-7-------5---------3-3/5-5/7--7-------5-------|
D|-7-0--3--5--5-5-5--3-3/5-5/7--7-0--3--5-5-5-5-|
A|-5-0--3--3--5-5-5--1-1/3-3/5--5-0--3--3-5-5-5-|
D|---0--3-----5-5-5---------------0--3----5-5-5-|


Verse 1
-------

e|--------------------------------------------------------|
b|--------------------------------------------------------|
g|--------------------------------------------------------|
D|--------------------------------------------------------|
A|-------------------------------------------3-3--3-3-3--3|
D|-0-0--0-0-0--0-0-0--0-0-0--0-5-5--5-5-5--5--------------|

e|--------------------------------------------------------|
b|--------------------------------------------------------|
g|--------------------------------------------------------|
D|--------------------------------------------------------|
A|-------------------------------------------3-3--3-3-3--3|
D|-0-0--0-0-0--0-0-0--0-0-0--0-5-5--5-5-5--5--------------|

e|--------------------------------------------------------|
b|--------------------------------------------------------|
g|-------------------------------------------5-5--5-5-5--5|
D|-0-0--0-0-0--0-0-0--0-0-0--0-5-5--5-5-5--5-5-5--5-5-5--5|
A|-0-0--0-0-0--0-0-0--0-0-0--0-5-5--5-5-5--5-3-3--3-3-3--3|
D|-0-0--0-0-0--0-0-0--0-0-0--0-5-5--5-5-5--5--------------|
 |							  |
e|--------------------------------------------------------|
b|--------------------------------------------------------|
g|-7-7--7-7-7--7-7-7--7-7-7--7---------------5-5--5-5-5--5|
D|-7-7--7-7-7--7-7-7--7-7-7--7-5-5--5-5-5--5-5-5--5-5-5--5|
A|-5-5--5-5-5--5-5-5--5-5-5--5-5-5--5-5-5--5-3-3--3-3-3--3|
D|-----------------------------5-5--5-5-5--5--------------|

e|--------------------------------------------------------|
b|--------------------------------------------------------|
g|-------------------------------------------5-5--5-5-5--5|
D|-0-0--0-0-0--0-0-0--0-0-0--0-5-5--5-5-5--5-5-5--5-5-5--5|
A|-0-0--0-0-0--0-0-0--0-0-0--0-5-5--5-5-5--5-3-3--3-3-3--3|
D|-0-0--0-0-0--0-0-0--0-0-0--0-5-5--5-5-5--5--------------|
 |					 		  |
e|--------------------------------------------------------|
b|--------------------------------------------------------|
g|-7-7--7-7-7--7-7-7--7-7-7--7---------------5-5--5-5-5--5|
D|-7-7--7-7-7--7-7-7--7-7-7--7-5-5--5-5-5--5-5-5--5-5-5--5|
A|-5-5--5-5-5--5-5-5--5-5-5--5-5-5--5-5-5--5-3-3--3-3-3--3|
D|-----------------------------5-5--5-5-5--5--------------|


Chorus 1
--------

e|---------------------------------------------------------|
b|---------------------------------------------------------|
g|-7-------5---------3-3/5-5/7--7-------5--------3-3/5-5/7-|
D|-7-0--3--5--5-5-5--3-3/5-5/7--7-0--3--5-5-5-5--3-3/5-5/7-|
A|-5-0--3--3--5-5-5--1-1/3-3/5--5-0--3--3-5-5-5--1-1/3-3/5-|
D|---0--3-----5-5-5---------------0--3----5-5-5------------|

e|---------------------------------------------------------|
b|---------------------------------------------------------|
g|-7-------5---------3-3/5-5/7--7-------5--------3-3/5-5/7-|
D|-7-0--3--5--5-5-5--3-3/5-5/7--7-0--3--5-5-5-5--3-3/5-5/7-|
A|-5-0--3--3--5-5-5--1-1/3-3/5--5-0--3--3-5-5-5--1-1/3-3/5-|
D|---0--3-----5-5-5---------------0--3----5-5-5------------|

e|------------------|
b|------------------|
g|-7-------5--------|
D|-7-0--3--5--5-5-5-|
A|-5-0--3--3--5-5-5-|
D|---0--3-----5-5-5-|

e|------------------|
b|------------------|
g|-7-------5--------|
D|-7-0--3--5--5-5-5-|
A|-5-0--3--3--5-5-5-|
D|---0--3-----5-5-5-|

e|------------------|
b|------------------|
g|-7-------5--------|
D|-7-0--3--5--5-5-5-|
A|-5-0--3--3--5-5-5-|
D|---0--3-----5-5-5-|

e|------------------|
b|------------------|
g|-7-------5--------|
D|-7-0--3--5--5-5-5-|
A|-5-0--3--3--5-5-5-|
D|---0--3-----5-5-5-|


Verse 2
-------

e|--------------------------------------------------------|
b|--------------------------------------------------------|
g|--------------------------------------------------------|
D|--------------------------------------------------------|
A|-------------------------------------------3-3--3-3-3--3|
D|-0-0--0-0-0--0-0-0--0-0-0--0-5-5--5-5-5--5--------------|

e|--------------------------------------------------------|
b|--------------------------------------------------------|
g|--------------------------------------------------------|
D|--------------------------------------------------------|
A|-------------------------------------------3-3--3-3-3--3|
D|-0-0--0-0-0--0-0-0--0-0-0--0-5-5--5-5-5--5--------------|

e|--------------------------------------------------------|
b|--------------------------------------------------------|
g|-------------------------------------------5-5--5-5-5--5|
D|-0-0--0-0-0--0-0-0--0-0-0--0-5-5--5-5-5--5-5-5--5-5-5--5|
A|-0-0--0-0-0--0-0-0--0-0-0--0-5-5--5-5-5--5-3-3--3-3-3--3|
D|-0-0--0-0-0--0-0-0--0-0-0--0-5-5--5-5-5--5--------------|
 |							  |
e|--------------------------------------------------------|
b|--------------------------------------------------------|
g|-7-7--7-7-7--7-7-7--7-7-7--7---------------5-5--5-5-5--5|
D|-7-7--7-7-7--7-7-7--7-7-7--7-5-5--5-5-5--5-5-5--5-5-5--5|
A|-5-5--5-5-5--5-5-5--5-5-5--5-5-5--5-5-5--5-3-3--3-3-3--3|
D|-----------------------------5-5--5-5-5--5--------------|

e|--------------------------------------------------------|
b|--------------------------------------------------------|
g|-------------------------------------------5-5--5-5-5--5|
D|-0-0--0-0-0--0-0-0--0-0-0--0-5-5--5-5-5--5-5-5--5-5-5--5|
A|-0-0--0-0-0--0-0-0--0-0-0--0-5-5--5-5-5--5-3-3--3-3-3--3|
D|-0-0--0-0-0--0-0-0--0-0-0--0-5-5--5-5-5--5--------------|
 |					 		  |
e|--------------------------------------------------------|
b|--------------------------------------------------------|
g|-7-7--7-7-7--7-7-7--7-7-7--7---------------5-5--5-5-5--5|
D|-7-7--7-7-7--7-7-7--7-7-7--7-5-5--5-5-5--5-5-5--5-5-5--5|
A|-5-5--5-5-5--5-5-5--5-5-5--5-5-5--5-5-5--5-3-3--3-3-3--3|
D|-----------------------------5-5--5-5-5--5--------------|


Chorus 2
-------

e|---------------------------------------------------------|
b|---------------------------------------------------------|
g|-7-------5---------3-3/5-5/7--7-------5--------3-3/5-5/7-|
D|-7-0--3--5--5-5-5--3-3/5-5/7--7-0--3--5-5-5-5--3-3/5-5/7-|
A|-5-0--3--3--5-5-5--1-1/3-3/5--5-0--3--3-5-5-5--1-1/3-3/5-|
D|---0--3-----5-5-5---------------0--3----5-5-5------------|

e|---------------------------------------------------------|
b|---------------------------------------------------------|
g|-7-------5---------3-3/5-5/7--7-------5--------3-3/5-5/7-|
D|-7-0--3--5--5-5-5--3-3/5-5/7--7-0--3--5-5-5-5--3-3/5-5/7-|
A|-5-0--3--3--5-5-5--1-1/3-3/5--5-0--3--3-5-5-5--1-1/3-3/5-|
D|---0--3-----5-5-5---------------0--3----5-5-5------------|

e|------------------|
b|------------------|
g|-7-------5--------|
D|-7-0--3--5--5-5-5-|
A|-5-0--3--3--5-5-5-|
D|---0--3-----5-5-5-|

e|------------------|
b|------------------|
g|-7-------5--------|
D|-7-0--3--5--5-5-5-|
A|-5-0--3--3--5-5-5-|
D|---0--3-----5-5-5-|

e|------------------|
b|------------------|
g|-7-------5--------|
D|-7-0--3--5--5-5-5-|
A|-5-0--3--3--5-5-5-|
D|---0--3-----5-5-5-|

e|------------------|
b|------------------|
g|-7-------5--------|
D|-7-0--3--5--5-5-5-|
A|-5-0--3--3--5-5-5-|
D|---0--3-----5-5-5-|


Verse 3
-------

e|--------------------------------------------------------|
b|--------------------------------------------------------|
g|--------------------------------------------------------|
D|--------------------------------------------------------|
A|-------------------------------------------3-3--3-3-3--3|
D|-0-0--0-0-0--0-0-0--0-0-0--0-5-5--5-5-5--5--------------|

e|--------------------------------------------------------|
b|--------------------------------------------------------|
g|--------------------------------------------------------|
D|--------------------------------------------------------|
A|-------------------------------------------3-3--3-3-3--3|
D|-0-0--0-0-0--0-0-0--0-0-0--0-5-5--5-5-5--5--------------|

e|--------------------------------------------------------|
b|--------------------------------------------------------|
g|-------------------------------------------5-5--5-5-5--5|
D|-0-0--0-0-0--0-0-0--0-0-0--0-5-5--5-5-5--5-5-5--5-5-5--5|
A|-0-0--0-0-0--0-0-0--0-0-0--0-5-5--5-5-5--5-3-3--3-3-3--3|
D|-0-0--0-0-0--0-0-0--0-0-0--0-5-5--5-5-5--5--------------|
 |							  |
e|--------------------------------------------------------|
b|--------------------------------------------------------|
g|-7-7--7-7-7--7-7-7--7-7-7--7---------------5-5--5-5-5--5|
D|-7-7--7-7-7--7-7-7--7-7-7--7-5-5--5-5-5--5-5-5--5-5-5--5|
A|-5-5--5-5-5--5-5-5--5-5-5--5-5-5--5-5-5--5-3-3--3-3-3--3|
D|-----------------------------5-5--5-5-5--5--------------|

e|--------------------------------------------------------|
b|--------------------------------------------------------|
g|-------------------------------------------5-5--5-5-5--5|
D|-0-0--0-0-0--0-0-0--0-0-0--0-5-5--5-5-5--5-5-5--5-5-5--5|
A|-0-0--0-0-0--0-0-0--0-0-0--0-5-5--5-5-5--5-3-3--3-3-3--3|
D|-0-0--0-0-0--0-0-0--0-0-0--0-5-5--5-5-5--5--------------|
 |					 		  |
e|--------------------------------------------------------|
b|--------------------------------------------------------|
g|-7-7--7-7-7--7-7-7--7-7-7--7---------------5-5--5-5-5--5|
D|-7-7--7-7-7--7-7-7--7-7-7--7-5-5--5-5-5--5-5-5--5-5-5--5|
A|-5-5--5-5-5--5-5-5--5-5-5--5-5-5--5-5-5--5-3-3--3-3-3--3|
D|-----------------------------5-5--5-5-5--5--------------|


Chorus 3
-------

e|---------------------------------------------------------|
b|---------------------------------------------------------|
g|-7-------5---------3-3/5-5/7--7-------5--------3-3/5-5/7-|
D|-7-0--3--5--5-5-5--3-3/5-5/7--7-0--3--5-5-5-5--3-3/5-5/7-|
A|-5-0--3--3--5-5-5--1-1/3-3/5--5-0--3--3-5-5-5--1-1/3-3/5-|
D|---0--3-----5-5-5---------------0--3----5-5-5------------|

e|---------------------------------------------------------|
b|---------------------------------------------------------|
g|-7-------5---------3-3/5-5/7--7-------5--------3-3/5-5/7-|
D|-7-0--3--5--5-5-5--3-3/5-5/7--7-0--3--5-5-5-5--3-3/5-5/7-|
A|-5-0--3--3--5-5-5--1-1/3-3/5--5-0--3--3-5-5-5--1-1/3-3/5-|
D|---0--3-----5-5-5---------------0--3----5-5-5------------|

e|---------------------------------------------------------|
b|---------------------------------------------------------|
g|-7-------5---------3-3/5-5/7--7-------5--------3-3/5-5/7-|
D|-7-0--3--5--5-5-5--3-3/5-5/7--7-0--3--5-5-5-5--3-3/5-5/7-|
A|-5-0--3--3--5-5-5--1-1/3-3/5--5-0--3--3-5-5-5--1-1/3-3/5-|
D|---0--3-----5-5-5---------------0--3----5-5-5------------|

e|---------------------------------------------------------|
b|---------------------------------------------------------|
g|-7-------5---------3-3/5-5/7--7-------5--------3-3/5-5/7-|
D|-7-0--3--5--5-5-5--3-3/5-5/7--7-0--3--5-5-5-5--3-3/5-5/7-|
A|-5-0--3--3--5-5-5--1-1/3-3/5--5-0--3--3-5-5-5--1-1/3-3/5-|
D|---0--3-----5-5-5---------------0--3----5-5-5------------|


OUTRO
-------

e|---------------------------------------------|
b|---------------------------------------------|
g|-/7\-----------/7\-----------/7\-----------7-|
D|-/5\-0-0-0-0-0-/5\-0-0-0-0-0-/5\-0-0-0-0-0-5-|
A|-/5\-0-0-0-0-0-/5\-0-0-0-0-0-/5\-0-0-0-0-0-5-|
D|-----0-0-0-0-0-----0-0-0-0-0-----0-0-0-0-0---|

Enjoy :)

NOTE:

This verse riff is displayed for two guitars:
e|--------------------------------------------------------|
b|--------------------------------------------------------|
g|-------------------------------------------5-5--5-5-5--5|
D|-0-0--0-0-0--0-0-0--0-0-0--0-5-5--5-5-5--5-5-5--5-5-5--5|
A|-0-0--0-0-0--0-0-0--0-0-0--0-5-5--5-5-5--5-3-3--3-3-3--3|
D|-0-0--0-0-0--0-0-0--0-0-0--0-5-5--5-5-5--5--------------|
 |					 		  |
e|--------------------------------------------------------|
b|--------------------------------------------------------|
g|-7-7--7-7-7--7-7-7--7-7-7--7---------------5-5--5-5-5--5|
D|-7-7--7-7-7--7-7-7--7-7-7--7-5-5--5-5-5--5-5-5--5-5-5--5|
A|-5-5--5-5-5--5-5-5--5-5-5--5-5-5--5-5-5--5-3-3--3-3-3--3|
D|-----------------------------5-5--5-5-5--5--------------|

It can be played with one guitar like this:
e|--------------------------------------------------------|
b|--------------------------------------------------------|
g|-7-7--7-7-7--7-7-7--7-7-7--7---------------5-5--5-5-5--5|
D|-7-7--7-7-7--7-7-7--7-7-7--7-5-5--5-5-5--5-5-5--5-5-5--5|
A|-5-5--5-5-5--5-5-5--5-5-5--5-5-5--5-5-5--5-3-3--3-3-3--3|
D|-0-0--0-0-0--0-0-0--0-0-0--0-5-5--5-5-5--5--------------|

OR, if you like, just like this (Probably the better sounding version):
e|--------------------------------------------------------|
b|--------------------------------------------------------|
g|-------------------------------------------5-5--5-5-5--5|
D|-0-0--0-0-0--0-0-0--0-0-0--0-5-5--5-5-5--5-5-5--5-5-5--5|
A|-0-0--0-0-0--0-0-0--0-0-0--0-5-5--5-5-5--5-3-3--3-3-3--3|
D|-0-0--0-0-0--0-0-0--0-0-0--0-5-5--5-5-5--5--------------|
comments
We did not receive enough feedback on this tab! Please rate:
print report bad tab
1 2 3 4 5
I want to post or [tab]
guest
You may want to rate the tab now too:
select rating
Please do not post tabs as comments. Select "correction" instead!