Oops, an error
Loading. Please wait.

Because Of You Tab

ver5
ver5

Whole song

Interactive

More versions @911Tabs.com
2,411 views 21 this week
no commentswrite comment
1 2 3 4 5
excellent!
x 2
Autoscroll
+/-
esc
set tempo
stop
Contributor
Difficulty
Tuning
intermediate
C G C F A D
Hey! There's an official Ultimate Guitar app which is ideal
for learning songs when you're away from computer. Get the app
WARNING: You are trying to view
                                    content from Ultimate-Guitar.com
                                    in an unauthorized application,
                                    which is prohibited.

                                    Please use an official Ultimate
                                    Guitar Tabs application for iPhone,
                                    iPad or Android to access legitimate
                                    chords, guitar, bass, and drum tabs
                                    from Ultimate-Guitar.com database.

                                    Type "ultimate guitar tabs" in Apple
                                    App Store's or Android Market's
                                    search to find the application.
Because Of You
Nickelback
The Long Road (2003)

Because Of You:  written by Chad Kroeger and Nickelback

GTR I - Drop C Tuning "Chad Kroeger" (d,A,F,C,G,C)
GTR II - Drop C Tuning "Ryan Peake" (d,A,F,C,G,C)

Intro

  GTR I
d|-------------------------------------------------|
A|-------------------------------------------------|
F|-------------------------------------------------|
C|-----------------3-----------------------3-------|
G|--0-----0--0--0--3--------0-----0--0--0--3-------|
C|--0-----0--0--0--3--------0-----0--0--0--3-------|
    .     .  .  .           .     .  .  . 

  GTR I
d|-------------------------------------------------|
A|-------------------------------------------------|
F|-------------------------------------------------|
C|-----------------3-------------------------------|
G|--0--0--0--0--0--3--------------5----------------|
C|--0--0--0--0--0--3-----0--3--0-----0--4--0--3--0-|
    .  .  .  .  . 

  GTR I
d|-------------------------------------------------|
A|-------------------------------------------------|
F|-------------------------------------------------|
C|-----------------3-----------------------3-------|
G|--------0--0--0--3--------0-----0--0--0--3-------|
C|--3h-5--0--0--0--3--------0-----0--0--0--3-------|
 |        .  .  .           .     .  .  . 
 |GTR II
d|-------------------------------------------------|
A|-------------------------------------------------|
F|-------------------------------------------------|
C|-----------------3-----------------------3-------|
G|--------0--0--0--3--------0-----0--0--0--3-------|
C|--------0--0--0--3--------0-----0--0--0--3-------|
          .  .  .           .     .  .  . 

  GTR I,II
d|-------------------------------------------------|
A|-------------------------------------------------|
F|-------------------------------------------------|
C|-----------------3-------------------------------|
G|--0--0--0--0--0--3--------------5----------------|
C|--0--0--0--0--0--3-----0--3--0-----0--4--0--3--0-|
    .  .  .  .  . 

  GTR I,II
d|-------------------------------------------------|
A|-------------------------------------------------|
F|-------------------------------------------------|
C|-----------------3-----------------------3-------|
G|--------0--0--0--3--------0-----0--0--0--3-------|
C|--3h-5--0--0--0--3--------0-----0--0--0--3-------|
          .  .  .           .     .  .  . 

  GTR I,II
d|-------------------------------------------------|
A|-------------------------------------------------|
F|-------------------------------------------------|
C|-----------------3-------------------------------|
G|--0--0--0--0--0--3--------------5----------------|
C|--0--0--0--0--0--3-----0--3--0-----0--4--0--3--0-|
    .  .  .  .  . 

  GTR I,II
d|-------------------------------------------------|
A|-------------------------------------------------|
F|-------------------------------------------------|
C|-----------------3-----------------------3-------|
G|--------0--0--0--3--------0-----0--0--0--3-------|
C|--3h-5--0--0--0--3--------0-----0--0--0--3-------|
          .  .  .           .     .  .  . 

  GTR I,II
d|-------------------------------------------------|
A|-------------------------------------------------|
F|-------------------------------------------------|
C|-----------------3-------------------------------|
G|--0--0--0--0--0--3-------------------------------|
C|--0--0--0--0--0--3-----0--3--0--5b---------------|
    .  .  .  .  . 

  GTR I,II
d|-------------------------------------------------|
A|-------------------------------------------------|
F|-------------------------------------------------|
C|-----------------3-----------------------3-------|
G|--------0--0-----3--------0-----0--0-----3-------|
C|--------0--0-----3--------0-----0--0-----3-------|

  GTR I,II
d|-------------------------------------------------|
A|-------------------------------------------------|
F|-------------------------------------------------|
C|-----------------3-------------------------------|
G|--0-----0--0-----3--------------5----------------|
C|--0-----0--0-----3-----0--3--0-----0--4--0--3--0-|

  GTR I,II
d|-------------------------------------------------|
A|-------------------------------------------------|
F|-------------------------------------------------|
C|-----------------3-----------------------3-------|
G|--------0--0-----3--------0-----0--0-----3-------|
C|--3h-5--0--0-----3--------0-----0--0-----3-------|

  GTR I,II
d|-------------------------------------------------|
A|-------------------------------------------------|
F|-------------------------------------------------|
C|-----------------3-------------------------------|
G|--0-----0--0-----3--------------5----------------|
C|--0-----0--0-----3-----0--3--0-----0--4--0--3--0-|

Verse

  GTR I,II
d|-------------------------------------------------|
A|-------------------------------------------------|
F|-------------------------------------------------|
C|-------------------------------------------------|
G|--------0--------0--------5\-1--0--------0-------|
C|--3h-5--0--------0--------5\-1--0--------0-------|
          .        .              .        .

  GTR I,II
d|-------------------------------------------------|
A|-------------------------------------------------|
F|-------------------------------------------------|
C|-------------------------------------------------|
G|--7/12--0--------0--------5\-1--0--------0-------|
C|--7/12--0--------0--------5\-1--0--------0-------|
          .        .              .        .

  GTR I,II
d|-------------------------------------------------|
A|-------------------------------------------------|
F|-------------------------------------------------|
C|-------------------------------------------------|
G|--7/12--0--------0--------5\-1--0--------0-------|
C|--7/12--0--------0--------5\-1--0--------0-------|
          .        .              .        .

  GTR I,II
d|-------------------------------------------------|
A|-------------------------------------------------|
F|-------------------------------------------------|
C|-------------------------------------10----10----|
G|--7/12--0--------0--------5\-1--0-----8-----8----|
C|--7/12--0--------0--------5\-1--0-----8-----8----|
          .        .              .         

  GTR I,II
d|-------------------------------------------------|
A|-------------------------------------------------|
F|-------------------------------------------------|
C|-------------------------------------------------|
G|--------0--------0--------5\-1--0--------0-------|
C|--------0--------0--------5\-1--0--------0-------|
          .        .              .        .

  GTR I,II
d|-------------------------------------------------|
A|-------------------------------------------------|
F|-------------------------------------------------|
C|-------------------------------------------------|
G|--7/12--0--------0--------5\-1--0--------0-------|
C|--7/12--0--------0--------5\-1--0--------0-------|
          .        .              .        .

  GTR I,II
d|-------------------------------------------------|
A|-------------------------------------------------|
F|-------------------------------------------------|
C|-------------------------------------------------|
G|--7/12--0--------0--------5\-1--0--------0-------|
C|--7/12--0--------0--------5\-1--0--------0-------|
          .        .              .        .

  GTR I,II
d|-------------------------------------------------|
A|-------------------------------------------------|
F|-------------------------------------------------|
C|-------------------------------------------------|
G|--7/12--0--------0--------5\-1--0--------0-------|
C|--7/12--0--------0--------5\-1--0--------0-------|
          .        .              .         

Pre Chorus

  GTR I,II
d|-------------------------------------------------|
A|-------------------------------------------------|
F|-------------------------------------------------|
C|-----------------3-----------------------3-------|
G|--------0--0-----3--------0-----0--0-----3-------|
C|--------0--0-----3--------0-----0--0-----3-------|

  GTR I,II
d|-------------------------------------------------|
A|-------------------------------------------------|
F|-------------------------------------------------|
C|-----------------3-------------------------------|
G|--0-----0--0-----3--------------5----------------|
C|--0-----0--0-----3-----0--3--0-----0--4--0--3--0-|

  GTR I,II
d|-------------------------------------------------|
A|-------------------------------------------------|
F|-------------------------------------------------|
C|-----------------3-----------------------3-------|
G|--------0--0-----3--------0-----0--0-----3-------|
C|--3h-5--0--0-----3--------0-----0--0-----3-------|

  GTR I,II
d|-------------------------------------------------|
A|-------------------------------------------------|
F|-------------------------------------------------|
C|-----------------3-------------------------------|
G|--0-----0--0-----3--------------5----------------|
C|--0-----0--0-----3-----0--3--0-----0--4--0--3--0-|

Chorus

  GTR I,II
d|-------------------------------------------------|
A|-------------------------------------------------|
F|-------------------------------------------------|
C|-------10-------10-------10----10-------10-------|
G|--------8--------8--------8-----8--------8-------|
C|--3h-5--8--------8--------8-----8--------8-------|

  GTR I
d|-------------------------------------------------|
A|-------------------------------------------------|
F|-------------------------------------------------|
C|-10----10-------10-------10----10-------10-------|
G|--8-----8--------8--------8-----8--------8-------|
C|--8-----8--------8--------8-----8--------8-------|

  GTR I
d|-------------------------------------------------|
A|-------------------------------------------------|
F|-------------------------------------------------|
C|-10-----7--------7--------7-----7--------7-------|
G|--8-----5--------5--------5-----5--------5-------|
C|--8-----5--------5--------5-----5--------5-------|

  GTR I
d|-------------------------------------------------|
A|-------------------------------------------------|
F|-------------------------------------------------|
C|--7----12-------12-------12-----7--------7-------|
G|--5----10-------10-------10-----5--------5-------|
C|--5----10-------10-------10-----5--------5-------|

  GTR I,II
d|-------------------------------------------------|
A|-------------------------------------------------|
F|-------------------------------------------------|
C|--7----10-------10-10----10----10-------10-10----|
G|--5-----8--------8--8-----8-----8--------8--8----|
C|--5-----8--------8--8-----8-----8--------8--8----|

  GTR I
d|-------------------------------------------------|
A|-------------------------------------------------|
F|-------------------------------------------------|
C|-10----10-------10-10----10----10-------10-10----|
G|--8-----8--------8--8-----8-----8--------8--8----|
C|--8-----8--------8--8-----8-----8--------8--8----|

  GTR I
d|-------------------------------------------------|
A|-------------------------------------------------|
F|-------------------------------------------------|
C|-10-----7--------7--7-----7-----7--------7--7----|
G|--8-----5--------5--5-----5-----5--------5--5----|
C|--8-----5--------5--5-----5-----5--------5--5----|

  GTR I
d|-------------------------------------------------|
A|-------------------------------------------------|
F|-------------------------------------------------|
C|--7----12----12----12----13----------13----------|
G|--5----10----10----10----11----------11----------|
C|--5----10----10----10----11----------11----------|

Post Chorus

  GTR I,II
d|-------------------------------------------------|
A|-------------------------------------------------|
F|-------------------------------------------------|
C|-----------------3-----------------------3-------|
G|--------0--0-----3--------0-----0--0-----3-------|
C|--------0--0-----3--------0-----0--0-----3-------|

  GTR I,II
d|-------------------------------------------------|
A|-------------------------------------------------|
F|-------------------------------------------------|
C|-----------------3-------------------------------|
G|--0-----0--0-----3--------------5----------------|
C|--0-----0--0-----3-----0--3--0-----0--4--0--3--0-|

  GTR I,II
d|-------------------------------------------------|
A|-------------------------------------------------|
F|-------------------------------------------------|
C|-----------------3-----------------------3-------|
G|--------0--0-----3--------0-----0--0-----3-------|
C|--3h-5--0--0-----3--------0-----0--0-----3-------|

  GTR I,II
d|-------------------------------------------------|
A|-------------------------------------------------|
F|-------------------------------------------------|
C|-----------------3-------------------------------|
G|--0-----0--0-----3--------------5----------------|
C|--0-----0--0-----3-----0--3--0-----0--4--0--3--0-|

Verse

  GTR I,II
d|-------------------------------------------------|
A|-------------------------------------------------|
F|-------------------------------------------------|
C|-------------------------------------------------|
G|--------0--------0--------5\-1--0--------0-------|
C|--3h-5--0--------0--------5\-1--0--------0-------|
          .        .              .        .

  GTR I,II
d|-------------------------------------------------|
A|-------------------------------------------------|
F|-------------------------------------------------|
C|-------------------------------------------------|
G|--7/12--0--------0--------5\-1--0--------0-------|
C|--7/12--0--------0--------5\-1--0--------0-------|
          .        .              .        .

  GTR I,II
d|-------------------------------------------------|
A|-------------------------------------------------|
F|-------------------------------------------------|
C|-------------------------------------------------|
G|--7/12--0--------0--------5\-1--0--------0-------|
C|--7/12--0--------0--------5\-1--0--------0-------|
          .        .              .        .

  GTR I,II
d|-------------------------------------------------|
A|-------------------------------------------------|
F|-------------------------------------------------|
C|-------------------------------------10----10----|
G|--7/12--0--------0--------5\-1--0-----8-----8----|
C|--7/12--0--------0--------5\-1--0-----8-----8----|
          .        .              .         

  GTR I,II
d|-------------------------------------------------|
A|-------------------------------------------------|
F|-------------------------------------------------|
C|-------------------------------------------------|
G|--------0--------0--------5\-1--0--------0-------|
C|--------0--------0--------5\-1--0--------0-------|
          .        .              .        .

  GTR I,II
d|-------------------------------------------------|
A|-------------------------------------------------|
F|-------------------------------------------------|
C|-------------------------------------------------|
G|--7/12--0--------0--------5\-1--0--------0-------|
C|--7/12--0--------0--------5\-1--0--------0-------|
          .        .              .        .

  GTR I,II
d|-------------------------------------------------|
A|-------------------------------------------------|
F|-------------------------------------------------|
C|-------------------------------------------------|
G|--7/12--0--------0--------5\-1--0--------0-------|
C|--7/12--0--------0--------5\-1--0--------0-------|
          .        .              .        .

  GTR I,II
d|-------------------------------------------------|
A|-------------------------------------------------|
F|-------------------------------------------------|
C|-------------------------------------------------|
G|--7/12--0--------0--------5\-1--0--------0-------|
C|--7/12--0--------0--------5\-1--0--------0-------|
          .        .              .         

Pre Chorus

  GTR I,II
d|-------------------------------------------------|
A|-------------------------------------------------|
F|-------------------------------------------------|
C|-----------------3-----------------------3-------|
G|--------0--0-----3--------0-----0--0-----3-------|
C|--------0--0-----3--------0-----0--0-----3-------|

  GTR I,II
d|-------------------------------------------------|
A|-------------------------------------------------|
F|-------------------------------------------------|
C|-----------------3-------------------------------|
G|--0-----0--0-----3--------------5----------------|
C|--0-----0--0-----3-----0--3--0-----0--4--0--3--0-|

  GTR I,II
d|-------------------------------------------------|
A|-------------------------------------------------|
F|-------------------------------------------------|
C|-----------------3-----------------------3-------|
G|--------0--0-----3--------0-----0--0-----3-------|
C|--3h-5--0--0-----3--------0-----0--0-----3-------|

  GTR I,II
d|-------------------------------------------------|
A|-------------------------------------------------|
F|-------------------------------------------------|
C|-----------------3-------------------------------|
G|--0-----0--0-----3--------------5----------------|
C|--0-----0--0-----3-----0--3--0-----0--4--0--3--0-|

Chorus

  GTR I,II
d|-------------------------------------------------|
A|-------------------------------------------------|
F|-------------------------------------------------|
C|-------10-------10-------10----10-------10-------|
G|--------8--------8--------8-----8--------8-------|
C|--3h-5--8--------8--------8-----8--------8-------|

  GTR I
d|-------------------------------------------------|
A|-------------------------------------------------|
F|-------------------------------------------------|
C|-10----10-------10-------10----10-------10-------|
G|--8-----8--------8--------8-----8--------8-------|
C|--8-----8--------8--------8-----8--------8-------|

  GTR I
d|-------------------------------------------------|
A|-------------------------------------------------|
F|-------------------------------------------------|
C|-10-----7--------7--------7-----7--------7-------|
G|--8-----5--------5--------5-----5--------5-------|
C|--8-----5--------5--------5-----5--------5-------|

  GTR I
d|-------------------------------------------------|
A|-------------------------------------------------|
F|-------------------------------------------------|
C|--7----12-------12-------12-----7--------7-------|
G|--5----10-------10-------10-----5--------5-------|
C|--5----10-------10-------10-----5--------5-------|

  GTR I,II
d|-------------------------------------------------|
A|-------------------------------------------------|
F|-------------------------------------------------|
C|--7----10-------10-10----10----10-------10-10----|
G|--5-----8--------8--8-----8-----8--------8--8----|
C|--5-----8--------8--8-----8-----8--------8--8----|

  GTR I
d|-------------------------------------------------|
A|-------------------------------------------------|
F|-------------------------------------------------|
C|-10----10-------10-10----10----10-------10-10----|
G|--8-----8--------8--8-----8-----8--------8--8----|
C|--8-----8--------8--8-----8-----8--------8--8----|

  GTR I
d|-------------------------------------------------|
A|-------------------------------------------------|
F|-------------------------------------------------|
C|-10-----7--------7--7-----7-----7--------7--7----|
G|--8-----5--------5--5-----5-----5--------5--5----|
C|--8-----5--------5--5-----5-----5--------5--5----|

  GTR I
d|-------------------------------------------------|
A|-------------------------------------------------|
F|-------------------------------------------------|
C|--7----12----12----12----13----------13----------|
G|--5----10----10----10----11----------11----------|
C|--5----10----10----10----11----------11----------|

Post Chorus

  GTR I,II
d|-------------------------------------------------|
A|-------------------------------------------------|
F|-------------------------------------------------|
C|-----------------3-----------------------3-------|
G|--------0--0-----3--------0-----0--0-----3-------|
C|--------0--0-----3--------0-----0--0-----3-------|

  GTR I,II
d|-------------------------------------------------|
A|-------------------------------------------------|
F|-------------------------------------------------|
C|-----------------3-------------------------------|
G|--0-----0--0-----3--------------5----------------|
C|--0-----0--0-----3-----0--3--0-----0--4--0--3--0-|

  GTR I,II
d|-------------------------------------------------|
A|-------------------------------------------------|
F|-------------------------------------------------|
C|-----------------3-----------------------3-------|
G|--------0--0-----3--------0-----0--0-----3-------|
C|--3h-5--0--0-----3--------0-----0--0-----3-------|

  GTR I,II
d|-------------------------------------------------|
A|-------------------------------------------------|
F|-------------------------------------------------|
C|-----------------3-------------------------------|
G|--0-----0--0-----3--------------5----------------|
C|--0-----0--0-----3-----0--3--0-----0--4--0--3--0-|

Bridge

  GTR I
d|-------------------------------------------------|
A|-------------------------------------------------|
F|-------------------------------------------------|
C|-------------------------------------------------|
G|-------------------------------------------------|
C|--3h-5--0--------2--------3---/10-------11-------|
 |
 |GTR II
d|-------------------------------------------------|
A|-------------------------------------------------|
F|-------------------------------------------------|
C|-------------------------------------------------|
G|-------------------------------------------------|
C|--3h-5-------------------------------------------|

  GTR I
d|-------------------------------------------------|
A|-------------------------------------------------|
F|-------------------------------------------------|
C|-------------------------------------------------|
G|-------------------------------------------------|
C|-12-----0--------2--------3---/10-------11-------|

  GTR I
d|-------------------------------------------------|
A|-------------------------------------------------|
F|-------------------------------------------------|
C|-------------------------------------------------|
G|-------------------------------------------------|
C|-12-----0--------2--------3---/10-------11-------|

  GTR I
d|-------------------------------------------------|
A|-------------------------------------------------|
F|-------------------------------------------------|
C|-------------------------------------------------|
G|-------------------------------------------------|
C|-12-----0--------2--------3-----5b---------------|
 |
 |GTR II
d|-------------------------------------------------|
A|-------------------------------------------------|
F|-------------------------------------------------|
C|-------------------------------------------------|
G|-------------------------------------------------|
C|--------------------------------5b---------------|

  GTR I,II
d|-------------------------------------------------|
A|-------------------------------------------------|
F|-------------------------------------------------|
C|--------0--------2--------3---/10-------11-------|
G|--------0--------2--------3---/10-------11-------|
C|--------0--------2--------3---/10-------11-------|

  GTR I,II
d|-------------------------------------------------|
A|-------------------------------------------------|
F|-------------------------------------------------|
C|-12-----0--------2--------3---/10-------11-------|
G|-12-----0--------2--------3---/10-------11-------|
C|-12-----0--------2--------3---/10-------11-------|

  GTR I,II
d|-------------------------------------------------|
A|-------------------------------------------------|
F|-------------------------------------------------|
C|-12-----0--------2--------3---/10-------11-------|
G|-12-----0--------2--------3---/10-------11-------|
C|-12-----0--------2--------3---/10-------11-------|

  GTR I,II
d|-------------------------------------------------|
A|-------------------------------------------------|
F|-------------------------------------------------|
C|-12-----0--------2--------3----------------------|
G|-12-----0--------2--------3-----5--------3-------|
C|-12-----0--------2--------3-----5--------3-------|
                                  .        .
       
  GTR I,II
d|-------------------------------------------------|
A|-------------------------------------------------|
F|-------------------------------------------------|
C|--------0--------2--------3---/12-------10-------|
G|--2-----0--------2--------3---/12-------10-------|
C|--2-----0--------2--------3---/12-------10-------|
    .                                       

  GTR I,II
d|-------------------------------------------------|
A|-------------------------------------------------|
F|-------------------------------------------------|
C|-12-----0--------2--------3-------------10-------|
G|-12-----0--------2--------3-----0--0--0-10-------|
C|-12-----0--------2--------3-----0--0--0-10-------|
                                  .  .  .   

  GTR I,II
d|-------------------------------------------------|
A|-------------------------------------------------|
F|-------------------------------------------------|
C|-12-----0--------2--------3---/12-------10-------|
G|-12-----0--------2--------3---/12-------10-------|
C|-12-----0--------2--------3---/12-------10-------|
                                            
  GTR I,II
d|-------------------------------------------------|
A|-------------------------------------------------|
F|-------------------------------------------------|
C|-12----------------------------------------------|
G|-12-----0--------2--------3-----5----------------|
C|-12-----0--------2--------3-----5b---------------|
          .        .        .     .         

  GTR I,II
d|-------------------------------------------------|
A|-------------------------------------------------|
F|-------------------------------------------------|
C|-------------------------------------------------|
G|-------------------------------------------------|
C|-------------------------------------------------|

Break

  GTR I,II
d|-------------------------------------------------|
A|-------------------------------------------------|
F|-------------------------------------------------|
C|-------------------------------------------------|
G|-------------------------------------------------|
C|-------------------------------------------------|

  GTR I,II
d|-------------------------------------------------|
A|-------------------------------------------------|
F|-------------------------------------------------|
C|-------------------------------------------------|
G|-------------------------------------------------|
C|-------------------------------------------------|

  GTR I,II
d|-------------------------------------------------|
A|-------------------------------------------------|
F|-------------------------------------------------|
C|-------------------------------------------------|
G|-------------------------------------------------|
C|-------------------------------------------------|

  GTR I,II
d|-------------------------------------------------|
A|-------------------------------------------------|
F|-------------------------------------------------|
C|-------------------------------------10----10----|
G|--------------------------------------8-----8----|
C|--------------------------------------8-----8----|
                                            
Verse 2

  GTR I,II
d|-------------------------------------------------|
A|-------------------------------------------------|
F|-------------------------------------------------|
C|-------------------------------------------------|
G|--------0--------0--------5\-1--0--------0-------|
C|--------0--------0--------5\-1--0--------0-------|
          .        .              .        .

  GTR I,II
d|-------------------------------------------------|
A|-------------------------------------------------|
F|-------------------------------------------------|
C|-------------------------------------------------|
G|--7/12--0--------0--------5\-1--0--------0-------|
C|--7/12--0--------0--------5\-1--0--------0-------|
          .        .              .        .

  GTR I,II
d|-------------------------------------------------|
A|-------------------------------------------------|
F|-------------------------------------------------|
C|-------------------------------------------------|
G|--7/12--0--------0--------5\-1--0--------0-------|
C|--7/12--0--------0--------5\-1--0--------0-------|
          .        .              .        .

  GTR I,II
d|-------------------------------------------------|
A|-------------------------------------------------|
F|-------------------------------------------------|
C|-------------------------------------------------|
G|--7/12--0--------0--------5\-1--0--------0-------|
C|--7/12--0--------0--------5\-1--0--------0-------|
          .        .              .         

Pre Chorus

  GTR I,II
d|-------------------------------------------------|
A|-------------------------------------------------|
F|-------------------------------------------------|
C|-----------------3-----------------------3-------|
G|--------0--0-----3--------0-----0--0-----3-------|
C|--------0--0-----3--------0-----0--0-----3-------|

  GTR I,II
d|-------------------------------------------------|
A|-------------------------------------------------|
F|-------------------------------------------------|
C|-----------------3-------------------------------|
G|--0-----0--0-----3--------------5----------------|
C|--0-----0--0-----3-----0--3--0-----0--4--0--3--0-|

  GTR I,II
d|-------------------------------------------------|
A|-------------------------------------------------|
F|-------------------------------------------------|
C|-----------------3-----------------------3-------|
G|--------0--0-----3--------0-----0--0-----3-------|
C|--3h-5--0--0-----3--------0-----0--0-----3-------|

  GTR I,II
d|-------------------------------------------------|
A|-------------------------------------------------|
F|-------------------------------------------------|
C|-----------------3-------------------------------|
G|--0-----0--0-----3--------------5----------------|
C|--0-----0--0-----3-----0--3--0-----0--4--0--3--0-|

Chorus

  GTR I,II
d|-------------------------------------------------|
A|-------------------------------------------------|
F|-------------------------------------------------|
C|-------10-------10-------10----10-------10-------|
G|--------8--------8--------8-----8--------8-------|
C|--3h-5--8--------8--------8-----8--------8-------|

  GTR I
d|-------------------------------------------------|
A|-------------------------------------------------|
F|-------------------------------------------------|
C|-10----10-------10-------10----10-------10-------|
G|--8-----8--------8--------8-----8--------8-------|
C|--8-----8--------8--------8-----8--------8-------|

  GTR I
d|-------------------------------------------------|
A|-------------------------------------------------|
F|-------------------------------------------------|
C|-10-----7--------7--------7-----7--------7-------|
G|--8-----5--------5--------5-----5--------5-------|
C|--8-----5--------5--------5-----5--------5-------|

  GTR I
d|-------------------------------------------------|
A|-------------------------------------------------|
F|-------------------------------------------------|
C|--7----12-------12-------12-----7--------7-------|
G|--5----10-------10-------10-----5--------5-------|
C|--5----10-------10-------10-----5--------5-------|

  GTR I,II
d|-------------------------------------------------|
A|-------------------------------------------------|
F|-------------------------------------------------|
C|--7----10-------10-10----10----10-------10-10----|
G|--5-----8--------8--8-----8-----8--------8--8----|
C|--5-----8--------8--8-----8-----8--------8--8----|

  GTR I
d|-------------------------------------------------|
A|-------------------------------------------------|
F|-------------------------------------------------|
C|-10----10-------10-10----10----10-------10-10----|
G|--8-----8--------8--8-----8-----8--------8--8----|
C|--8-----8--------8--8-----8-----8--------8--8----|

  GTR I
d|-------------------------------------------------|
A|-------------------------------------------------|
F|-------------------------------------------------|
C|-10-----7--------7--7-----7-----7--------7--7----|
G|--8-----5--------5--5-----5-----5--------5--5----|
C|--8-----5--------5--5-----5-----5--------5--5----|

  GTR I
d|-------------------------------------------------|
A|-------------------------------------------------|
F|-------------------------------------------------|
C|--7----12----12----12----13----------13----------|
G|--5----10----10----10----11----------11----------|
C|--5----10----10----10----11----------11----------|

Post Chorus

  GTR I,II
d|-------------------------------------------------|
A|-------------------------------------------------|
F|-------------------------------------------------|
C|-----------------3-----------------------3-------|
G|--------0--0-----3--------0-----0--0-----3-------|
C|--------0--0-----3--------0-----0--0-----3-------|

  GTR I,II
d|-------------------------------------------------|
A|-------------------------------------------------|
F|-------------------------------------------------|
C|-----------------3-------------------------------|
G|--0-----0--0-----3--------------5----------------|
C|--0-----0--0-----3-----0--3--0-----0--4--0--3--0-|

  GTR I,II
d|-------------------------------------------------|
A|-------------------------------------------------|
F|-------------------------------------------------|
C|-----------------3-----------------------3-------|
G|--------0--0-----3--------0-----0--0-----3-------|
C|--3h-5--0--0-----3--------0-----0--0-----3-------|

  GTR I,II
d|-------------------------------------------------|
A|-------------------------------------------------|
F|-------------------------------------------------|
C|-----------------3-------------------------------|
G|--0-----0--0-----3--------------5----------------|
C|--0-----0--0-----3-----0--3--0-----0--4--0--3--0-|

Outro

  GTR I,II
d|-------------------------------------------------|
A|-------------------------------------------------|
F|-------------------------------------------------|
C|-----------------3-----------------------3-------|
G|--------0--0--0--3--0--0--0--0--0--0--0--3--0--0-|
C|--3h-5--0--0--0--3--0--0--0--0--0--0--0--3--0--0-|
          .  .  .     .  .  .  .  .  .  .     .  .

  GTR I,II
d|-------------------------------------------------|
A|-------------------------------------------------|
F|-------------------------------------------------|
C|-----------------3-------------------------------|
G|--0--0--0--0--0--3--0-----------5----------------|
C|--0--0--0--0--0--3--0--0--3--0-----0--4--0--3--0-|
    .  .  .  .  .     .

  GTR I,II
d|-------------------------------------------------|
A|-------------------------------------------------|
F|-------------------------------------------------|
C|-----------------3-----------------------3-------|
G|--------0--0--0--3--0--0--0--0--0--0--0--3--0--0-|
C|--3h-5--0--0--0--3--0--0--0--0--0--0--0--3--0--0-|
          .  .  .     .  .  .  .  .  .  .     .  .

  GTR I,II
d|-------------------------------------------------|
A|-------------------------------------------------|
F|-------------------------------------------------|
C|-----------------3-------------------------------|
G|--0--0--0--0--0--3--0-----------5----------------|
C|--0--0--0--0--0--3--0--0--3--0-----0--4--0--3--0-|
    .  .  .  .  .     .

  GTR I,II
d|-------------------------------------------------|
A|-------------------------------------------------|
F|-------------------------------------------------|
C|-------------------------------------------------|
G|--------0----------------------------------------|
C|--3h-5--0----------------------------------------|
          .


| b  bend
| r  release bend
|trp triplet
|PH. pinch harmonic
|fbk feedback
| .  palm-mute
| /  slide up
| \  slide down
| h  hammer-on
| p  pull-off
| ~  vibrato
|(7) harmonic
| x  Mute note
===============================================================================

comments
We did not receive enough feedback on this tab! Please rate:
print report bad tab
1 2 3 4 5
I want to post or [tab]
guest
You may want to rate the tab now too:
select rating
Please do not post tabs as comments. Select "correction" instead!