Oops, an error
Loading. Please wait.

Dark Horse Tab

73,565 views 3 this week
16 commentsread comments
1 2 3 4 5
accurate
x 15
Autoscroll
+/-
esc
set tempo
stop
Contributor
Hey! There's an official Ultimate Guitar app which is ideal
for learning songs when you're away from computer. Get the app
WARNING: You are trying to view
                                    content from Ultimate-Guitar.com
                                    in an unauthorized application,
                                    which is prohibited.

                                    Please use an official Ultimate
                                    Guitar Tabs application for iPhone,
                                    iPad or Android to access legitimate
                                    chords, guitar, bass, and drum tabs
                                    from Ultimate-Guitar.com database.

                                    Type "ultimate guitar tabs" in Apple
                                    App Store's or Android Market's
                                    search to find the application.
#1:something your mouth
*=Artificial harmonic
/or\=Slide
b=Bend
h=hammer
p=pull

Funny song.

Intro part 1 (really gritty clean tone. Turn your treble way up)
e------|---------------------------------|
B------|---------------------------------|
G------|---------------------------------|
D------|---------------------------------|
A--/12-|0-0----3--0----3--0----3--0----5-|
D--/12-|0-0-/5----0-/5----0-/5----0-/5---|

Intro part 2 (2nd guitar enters w/feedback and dirty tone)
e--------------|-------------------------------------------|----------------|
B--------------|-------------------------------------------|----------------|
G--------------|-------------------------------------------|----------------|
D--------------|-------------------------------------------|----------------|
A------3-5-4-3-|-0-0----3-x-x-0----3-x-x-0----3-x-x-0----5-|-3----0-3-5-4-3-|
D--12\---5-4-3-|-0-0-/5---x-x-0-/5---x-x-0-/5---x-x-0-/5---|---5*-0---5-4-3-|
         p.m.-

Intro part 3 (dirty guitar with delay and lots of reverb)
e-------|
B--13---|
G--15b--| Bend and release this a few times. This will be repeated several
D-------| times throughout the song. It sounds sort of like a siren.
A-------|
D-------|

Verse (slightly dirty guitar w/envelope filter)
e------------------------------------------|------------|
B------------------------------------------|------------|
G------------------------------------------|------------|
D------------------------------------------|------------|
A--5-5--5----------5--5-------------5------|----3-5-4-3-|
D--0-------0--0--0-------0--0--0--0---0--0-|12\---5-4-3-|

Verse (This guitar is hard to hear, but it's there) (dirty tone)
e--------------------------------------------------------|
B--------------------------------------------------------|
G--10p9-x-x-9-x-x-10p9-x-x-9-x-x-10p9-x-x-9-x-x-10-x-x-9-|
D--------------------------------------------------------|
A--------------------------------------------------------|
D--------------------------------------------------------|

Chorus ending ("so much cooler"...)
e------------------------------------------------|
B-------------------------------8-8-8-8-8-8-8----|
G--5-5-5-5-5-5-5-3/5-5-5-5-5----7-7-7-7-7-7-7----|
D--5-5-5-5-5-5-5-3/5-5-5-5-5-3--5-5-5-5-5-5-5-3\-|
A--3-3-3-3-3-3-3-1/3-3-3-3-3-3--5-5-5-5-5-5-5-3\-|
D----------------------------3--5-5-5-5-5-5-5-3\-|

Bridge (clean tone w/very little distortion) (guitar 2 in parenthesis)
e--------------------------------------------------------------------|
B--------------------------------------------------------------------|
G--------------------------------------------------------------------|
D----------------3--3-----5-5--------------------3--3-----5-5--------|
A------5-5-3-3-5-5----3-3-----3(3*b)-3-5-5-3-3-5-5----3-3-----3(3*B)-|
D--0-0-----------0-----------------0-0-----------0-------------------|

@ around 2:42 this guitar comes in (it's hard to hear) w/wah:
e--------|
B--------|
G--10-10-|
D--------|
A--8--8--|
D--------|

2:54 cool guitar part: (2nd one is the way I like to play it)
e----------------------------------|---------------------------------------|
B----------------------------------|---------------------------------------|
G--------------------------------- or -------------------------------------|
D--3p0-----------------------------|---------------------------------------|
A------3---5---5-3-----------------|---------------------------------------|
D--------0---0-----0-0-3p0-3/5-3p0-|-15-12-10p0-12p0-12p10-0-0-3p0-3/5-3p0-|

End song on:
e-----
B-----
G-----
D--3\-
A--3\-
D--3\-



#2:burn it to the ground
/or\=slide
h=hammer
p=pull
b=bend
r=release
*=palm mute
~=vibrate

My new party anthem.

Intro part 1:
eb-------|-----------------------------------------------------|
Bb-------|-----------------------------------------------------|
Gb-------|-----------------------------------------------------|
Db-------|-----------------------------------------------------|
Ab-------|------------------------------------------8-------10-|
Db--/19\-|-0-0-15p0-0-12~0-15p0-0-12~0-15p0-0-10h12---12p10----|

Intro part 2:
eb-------------------------------------------------------|
Bb-------------------------------------------------------|
Gb-------------------------------------------------------|
Db-------------------------------------------------------|
Ab-------------------------------------------15----------|
Db--0-0-15p0-0-12~0-15p0-0-12~0-15p0-0-17/19----19\17p15-|

Intro part 3:
eb------------------------------------------------------------|
Bb------------------------------------------------------------|
Gb------------------------------------------------------------|
Db------------------------------------------------------------|
Ab------------------------------------------------------------|
Db--0-0-0h10h12--0-0-0h10h12--0-0-0h10h12--/17p15-0-17p15-17b-|
      *            *            *
Intro part 4:
eb-----------------------------------------------------|
Bb-----------------------------------------------------|
Gb-----------------------------------------------------|
Db-----------------------------------------------------|
Ab---------------------------------------------6-5-4-3-|
Db--0-0-0h10h12--0-0-0h10h12--0-0-0h10h12-10p0-6-5-4-3-|
      *            *            *              * * * *
Verse:
eb-------------------------------------------------------------------------|
Bb-------------------------------------------------------------------------|
Gb-------------------------------------------------------------------------|
Db-------------------------------------------------------------------------|
Ab----------------------8-------10-----------------------------------------|
Db----12----12----10h12---12p10------0-0-0h10h12--0-0-0h10h12--0-0-0h10h12-|
                                       *            *            *
eb-------------------------------------------------------------------------|
Bb-------------------------------------------------------------------------|
Gb-------------------------------------------------------------------------|
Db-------------------------------------------------------------------------|
Ab----------------------------------------3--------------------------------|
Db--/17p15-0-17p15-17b----12----12----3/5---5\3p0-0-0-0h10h12--0-0-0h10h12-|
                                                    *            *
eb--------------------------|
Bb--------------------------|
Gb--------------------------|
Db--------------------------| Repeat
Ab--------------------------|
Db--0-0-0h10h12-5br-3-5br-3-|
      *
Chorus: (I'm not listing the number of times each chord is played)
eb------------------------|
Bb------------------------|
Gb--7----5----------------|
Db--7----5----5----3------|
Ab--5----3----5----3------|
Db------------5----3--10b-|
                        ^slow bend
Small interlude between 2nd chorus and solo:
Guitar 1:
eb------------------------------------------------|
Bb------------------------------------------------|
Gb----------------------10---------------------10-|
Db--12-10------------10----12-10------------10----|
Ab--------10-8-10-12-------------10-8-10-12-------|
Db------------------------------------------------|

Guitar 2: (w/Wah)
eb----------------------------------------------|
Bb----------------------------------------------|
Gb----------------------------------------------|
Db-----------------------3----------------------|
Ab--5--3--------------3-----5--3-------------3/-|
Db--------5--3--5--7--------------5-3--5--7-----|

Bridge rhythm:
eb---------------------------------|
Bb---------------------------------|
Gb---------------------------------|
Db--7---5--------------10-------10-|Repeat
Ab--5---3--7---6---5---8--10----8--|
Db----0----7---6---5-0----10--0----|
      *              *        *
solo: (w/Wah) the wah makes the solo. Chad is constantly pushing the toe
forward and back in an unorganized fashion. Just be messy with your pedal
and play something like the following and you'll do fine:
eb------------------------------------------------------------------------|
Bb---------------------------------------------------------------10h13p10-|
Gb----------------------------10--12br-12r-12r-12r-12r-12~~~--12b---------|
Db---------------------10-12~---------------------------------------------|
Ab--12~~~-12~-12~-12~~----------------------------------------------------|
Db------------------------------------------------------------------------|
                                     ^slowly release this bend

eb----------------------------------------------------------------------|
Bb----10h13p10--10h13p10--10h13p10--10h13p10h13p10--10h13p10---10h13p10-|
Gb--12--------12--------12--------12--------------12---------12---------|
Db----------------------------------------------------------------------|
Ab----------------------------------------------------------------------|
Db----------------------------------------------------------------------|

eb----------------13-15b-15r~-15r~-15r~-15r~-15r-15r-15\---|
Bb--13p10-13b--15------------------------------------------|
Gb---------------------------------------------------------|"hahahahahaha"
Db---------------------------------------------------------|
Ab---------------------------------------------------------|
Db---------------------------------------------------------|
                       ^slowly release this bend
End on:
eb----------------------------------------------------------------|
Bb----------------------------------------------------------------|
Gb----------------------------------------------------------------|
Db----------------------------------------------------------------|
Ab--------------------------3-6-5-4-3-0-3-6-5-4-3-0-3-6-5-4-3-0-0-|
Db--5br-3-5br-3-5br-3-5br-3---6-5-4-3-0---6-5-4-3-0---6-5-4-3-0-0-|
                              * * * * *   * * * * *   * * * * *

I think that's everything. If I missed anything or if anybody has
suggestions either email me or comment on the tab.


#3: gotta be somebody
Intro/Verse x2
e|------------------------------| Not exact number of times picked!
b|------------------------------|
G|--99999--77777--22222--55555--|
D|--99999--77777--22222--55555--|
A|--77777--55555--00000--33333--|
E|------------------------------|

Pre-Chorus x1
e|-----------------------------------| Not exact number of times picked!
b|-----------------------------------|
G|--77777--1010101010--1212121212----|
D|--77777--1010101010--1212121212----|
A|--55555--8-8-8-8-8---1010101010----|
E|-----------------------------------|

Chorus x2
e|-----------------------------| Not exact number of times picked!
b|-----------------------------|
G|-55555-----------------------|
D|-55555--55555--77777--33333--|
A|-33333--55555--77777--33333--|
E|--------33333--55555--11111--|

Verse 2 x1
e|------------------------------| Not exact number of times picked!
b|------------------------------|
G|--99999--77777--22222--55555--|
D|--99999--77777--22222--55555--|
A|--77777--55555--00000--33333--|
E|------------------------------|

Pre-Chorus x1
e|-----------------------------------| Not exact number of times picked!
b|-----------------------------------|
G|--77777--1010101010--1212121212----|
D|--77777--1010101010--1212121212----|
A|--55555--8-8-8-8-8---1010101010----|
E|-----------------------------------|

Chorus x2
e|-----------------------------| Not exact number of times picked!
b|-----------------------------|
G|-55555-----------------------|
D|-55555--55555--77777--33333--|
A|-33333--55555--77777--33333--|
E|--------33333--55555--11111--|

Breakdown Bit Is Same As Chorus x1 "You cant give up...."
e|-----------------------------|
b|-----------------------------| Not exact number of times picked!
G|-55555-----------------------|
D|-55555--55555--77777--33333--|
A|-33333--55555--77777--33333--|
E|--------33333--55555--11111--|

Last Chorus x2
e|-----------------------------| Not exact number of times picked!
b|-----------------------------|
G|-55555-----------------------|
D|-55555--55555--77777--33333--|
A|-33333--55555--77777--33333--|
E|--------33333--55555--11111--|

End With
e|-----------------------------|
b|-----------------------------|
G|-5---------------------------|
D|-5---------------------------|
A|-3---------------------------|
E|-----------------------------|


#4:I'd come for you
INTRO
Bm  G6  Dsus2  A

VERSE1
              Bm                        G6
Just one more moment, that´s all that´s needed
             Dsus2               A
Like wounded soldiers in need of healing
           Bm                    G6
Time to be honest, this time I´m pleading
                 Dsus2                   A
Please don´t dwell on it, cause I didn't mean it

PRE-CHORUS
Em             G              D          A
   I can´t believe I said I'd lay our love on the ground
Em                  G               D          A            Em
   But it doesn´t matter cause I've made it up, forgive me now
       G            D          A
Every day I spend away my soul’s inside out
Em                G             D         A
   Gotta be some way that I can make it up to you now, somehow

CHORUS
                     D                Bm
By now you know that   I'd come for you
               A                      G          A
No one but you,  yes I'd come for you,  but only if you told me to
D                     Bm                 A
  And I'd fight for you, I'd lie, it's true
                     F
Give my life for you
             G
You know I'd always come for you

INTERLUDE
D  Bm  A  F  G (D)

VERSE2
            Bm                  G6
I was blindfolded, but now I´m seeing
            Dsus2               A
My mind was closing, now I'm believing

PRE-CHORUS
Em             G               D           A
   I finally know just what it means to let someone in
Em             G              D          A          Em
   To see the side of me that no one does or ever will
             G             D            A
So if you’re ever lost and find yourself all alone
Em               G            D             A
   I'd search forever just to bring you home, here and now, this I vow

CHORUS
                     D                Bm
By now you know that   I'd come for you
               A                      G          A
No one but you,  yes I'd come for you,  but only if you told me to
D                     Bm                 A
  And I'd fight for you, I'd lie, it's true
                     F
Give my life for you
             G
You know I'd always come for you
Bb              C
   You know I'd always come for you

“OUTRO”
D                           Bm                                    A
  No matter what gets in my way, as long as there's still life in me
                        F               G
No matter what remember   you know I'll always come for you
D                    Bm              A
  Yes I’d come for you, no one but you
                    G
Yes I'd come for you, but only if you told me to
D                     Bm                   A
  And I'd fight for you, I'd lie, it's true

Give my life for you
F               G
  You know I'll always come for you
D                           Bm                                    A
  No matter what gets in my way, as long as there's still life in me
                        F               G
No matter what remember   you know I'll always come for you
D                                 Bm                           A
  I'd crawl across this world for you, do anything you want me to
                        F               G
No matter what remember   you know I'll always come for you
Bb               C                   D
   You know I'll always come for you.

#5: next go round (don.t know)



#6: just to get high
Here is just to get high.  it seems pretty accurate, but i didnt mark the 
strumming parts for some parts
of the song so you'll have to figure that out for yourself.  Also, i dont have the solo 
i just improvise
something close to it because its to much work to get it note for note and tab it out.  
is a great nickelback
song off Dark Horse.  please rate :)

tuning: drop D

Intro

E|-------------------------|-------------------------|----------------|
B|-------------------------|-------------------------|----------------|
G|-------------------------|-------------------------|-----5---7------|
D|-----------------7---7---|-----------------7---7---|----------------|
A|-----7-----8-----------8-|-----7-----8-----------8-|----------------|
D|-0-0---0-0---0-0---0-----|-5-5---5-5---5-5---5-----|-8-8---8---8----|

E|----------------|---------------------------|
B|----------------|---------------------------|
G|----------------|------7---5----------------|
D|-------5---7----|-------------------7-------|  x3
A|----------------|--3-3---3---3----------8---|
D|---3-3---3---3--|---------------5-5---5---5-|


Pre chorus
Guitar1

’But I can still remember what...’ (0:42)
E|---------------------------------------------|
B|---------------------------------------------|
G|-----5-----------------5--------5-strum-this-|
D|---------7--8-7----------5---5--5-until-the--|
A|--------------------------------3—quiet-part-|
D|-8-8------------8--3-3-----3-----------------|

Guitar 2

E|---------------------------------|-----------------|-----------------|
B|---------------------------------|-6-6-6-6-6-6-6-6-|-----------------|
G|-3-3-3-3-3-3-3-3-3-3-3-3-3-3-3-3-|-5-5-5-5-5-5-5-5-|-5-5-5-5-5-5-5-5-|
D|-3-3-3-3-3-3-3-3-3-3-3-3-3-3-3-3-|-3-3-3-3-3-3-3-3-|-5-5-5-5-5-5-5-5-|
A|-1-1-1-1-1-1-1-1-1-1-1-1-1-1-1-1-|-3-3-3-3-3-3-3-3-|-3-3-3-3-3-3-3-3-|
D|---------------------------------|-3-3-3-3-3-3-3-3-|-----------------|
  pm  pm  pm  pm  pm  pm  pm  pm     pm  pm  pm  pm    pm


Tell me what you know, tell me what you gone and done now


Chorus

‘Tell me what you know, tell me…’ (0:51)
E|----------------------------------------|
B|-----------3------8----------------8----|
G|-----------2------7------3----5----7----|
D|-----------0------5------3----5----5----|
A|-----------0------5------1----3----5----|
D|----15\----0------5----------------5----|


Repeat intro

Repeat Pre chorus


Chorus
'Tell me what you know...' (1:45)
E|--------------------------------|
B|-------3----8--------------8----|
G|-------2----7----3----5----7----|
D|-------0----5----3----5----5----|  x2
A|-------0----5----1----3----5----|
D|-15\---0----5--------------5----|

After your second time doing the chorus, go right in to this (2:13)

   igh... igh... igh... high... igh ...igh
E|----------------------------------------------|
B|-------6-----8-8-8-8-8-8-8-8------------------|
G|--3----5-----7-7-7-7-7-7-7-7------------------|
D|--3----3-----5-5-5-5-5-5-5-5------------------|
A|--1----3-----5-5-5-5-5-5-5-5------------------|
D|-------3-----5-5-5-5-5-5-5-5------------------|
               pm  pm  pm  pm

Solo rhythm (Same as Chorus)

E|--------------------------------|
B|-------3----8--------------8----|
G|-------2----7----3----5----7----|
D|-------0----5----3----5----5----|
A|-------0----5----1----3----5----|
D|-------0----5--------------5----|


Repeat intro

Repeat chorus


Tell me what you did, where you gone and hid...


Lick at the end of the song (3:44 – 4:00)

E|--15p13--15p13----15p13----15p13-15p13----15p13-----|
B|---------------15-------15-------------15-------15--|
G|----------------------------------------------------|
D|----------------------------------------------------| x2
A|----------------------------------------------------|
D|----------------------------------------------------|

E|--17p13--17p13----17p13----17p13-17p13----17p13-----|
B|---------------15-------15-------------15-------15--|
G|----------------------------------------------------|
D|----------------------------------------------------| x2
A|----------------------------------------------------|
D|----------------------------------------------------|

E|----------------|----15p13-15p13----17p13-x4--------|
B|----------------|-15-------------15------------10\--|
G|--------14-17---|------------------------------10\--|
D|-----15---------|-----------------------------------|
A|--17------------|-----------------------------------|
D|----------------|-----------------------------------|


#7: never gonna be alone
(Verse 1)
E              B                     C#m
Time, is going by, so much faster than I,
                                  A
And I'm starting to regret not spending all of here with you.
     E              B                             C#m
Now I'm, wondering why, I've kept this bottled inside,
                                 A
So I'm starting to regret not selling all of it to you.
               F#m                        A
So if I haven't yet, I've gotta let you know...

(Chorus)
                   E
Never gonna be alone!
                  A                                E
From this moment on, if you ever feel like letting go,
              A
I won't you fall...
                  E
Never gonna be alone!
                     B          A
I'll hold you 'til the hurt is gone.

(Verse 2)
     E                 B                              C#m
And now, as long as I can, I'm holding on with both hands,
                                       A
'Coz forever I believe that there's nothing I could need but you,
               F#m                        A
So if I haven't yet, I've gotta let you know...

(Chorus)
                  E
Never gonna be alone!
                 A                                  E
From this moment on, if you ever feel like letting go,
                  A
I won't let you fall.
                   E                              A
When all hope is gone, I know that you can carry on.
                           E
We're gonna see the world out,
                    B          A
I'll hold you 'til the hurt is gone.

(Verse 3)
F#m C#m A B
       Ooooh!
                    F#m         C#m
You've gotta live every single day,
               A                    B
Like it's the only one, what if tomorrow never comes?
       F#m          C#m
Don't let it slip away,
              A                  B
Could be our only one, you know it's only just begun.
 F#m          C#m
Every single day,
           A                   B
Maybe our only one, what if tomorrow never comes?
          A
Tomorrow never comes...

(Verse 4)
E              B                      C#m
Time, is going by, so much faster than I,
                                 A
And I'm starting to regret not telling all of this to you.

(Chorus)
                   E
Never gonna be alone!
                 A                                  E
From this moment on, if you ever feel like letting go,
                  A
I won't let you fall.
                   E                             A
When all hope is gone, I know that you can carry on.
                          E
We're gonna see the world out,
                     B          A
I'll hold you 'til the hurt is gone.
                   E  B  A
I'm gonna be there always,
                     E     B    A
I won't be missing a word all day,
                   E  B  A
I'm gonna be there always,
                     E     B    A
I won't be missing a word all day.


#8: shakin' hands(don't know)



#9: S.E.X(don't know)



#10: if today was your last day
CAPO: 1

(Bm)               (D)            (A)
My best friend gave me the best advice 
                                          (Bm)
He said each day's a gift and not a given right 
                (D)                        (A)
Leave no stone unturned, leave your fears behind 
                                      (Bm)
And try to take the path less traveled by 
                   (D)                   (A)
That first step you take is the longest stride 

(A)                   (Bm)
If today was your last day 
                     (D)
and tomorrow was too late 
                              (A)
Could you say goodbye to yesterday? 
                                    (Bm)
Would you live each moment like your last? 
                         (D)
Leave old pictures in the past 
                     (A)
Donate every dime you have? 
                      (Bm)   (D)   (A)
If today was your last day 

(Bm)        (D)                     (A)
Against the grain should be a way of life 
                                          (Bm)
What's worth the prize is always worth the fight 
             (D)                            (A)
Every second counts 'cause there's no second try 
                                 (Bm)
So live like you'll never live it twice 
              (D)                   (A)
Don't take the free ride in your own life 

(A)                   (Bm)
If today was your last day 
                     (D)
and tomorrow was too late 
                              (A)
Could you say goodbye to yesterday? 
                                    (Bm)
Would you live each moment like your last? 
                         (D)
Leave old pictures in the past 
                     (A)
Donate every dime you have?
                                    (Bm)
Would you call old friends you never see? 
            (D)
Reminisce of memories 
                      (A)
Would you forgive your enemies? 
                                       (Bm)
Would you find that one you're dreamin' of? 
                         (D)
Swear up and down to God above 
                        (A)
That you finally fall in love 
                      (E)
If today was your last day 
                      (D)
If today was your last day 
                   (A)                (E)
Would you make your mark by mending a broken heart? 
                       (D)                   (A)
You know it's never too late to shoot for the stars 
             (E)
Regardless of who you are 
                 (D)
So do whatever it takes 
                  (A)           (E)
'Cause you can't rewind a moment in this life 
                         (D)
Let nothin' stand in your way 
                  (A)            (E) 
Cause the hands of time are never on your side 

(E)                   (Bm)   
If today was your last day 
                    (D)
and tomorrow was too late 
                              (A)
Could you say goodbye to yesterday? 
                                    (Bm)
Would you live each moment like your last? 
                         (D)
Leave old pictures in the past 
                     (A)
Donate every dime you have?
                                    (Bm)
Would you call old friends you never see? 
            (D)
Reminisce of memories 
                      (A)
Would you forgive your enemies? 
                                       (Bm)
Would you find that one you're dreamin' of? 
                         (D)
Swear up and down to God above 
                        (A)
That you finally fall in love 
                      (Bm)
If today was your last day 





#11: this afternoon
Tuning: Standard


Intro (2x)

Guitar 1 (0:03 - 0:15)

e|-33333-22222----------2222|
B|-33333-33333-33333333-3333|
G|-44444-22222-00000000-2222|
D|-55555-44444-22222222-0000|
A|-55555-55555-33333333-----|
E|-33333-22222--------------|

Guitar 2 (0:08 - 0:09 )       (0:10 - 0:14)

e|-----333|                 e|---------------|
B|-222-333|                 B|---------------|
G|-000-222|                 G|-3/4-7-2-0---4~|
D|-222-000|                 D|-----------0---|
A|-333----|                 A|---------------|
E|--------|                 E|---------------|

Verse (0:15 - 0:51)

Guitar 1 (6x) (0:15 - 0:51)

e|-333333-222222-00000000-2222|
B|-333333-333333-11111111-3333|
G|-444444-222222-00000000-2222|
D|-555555-444444-22222222-0000|
A|-555555-555555-33333333-----|
E|-333333-222222--------------|

Guitar 2 (0:34 - 0:39)                                  (0:48 - 0:51)

e|---------------------------------------|      e|------------------------|
B|---------------------------------------|      B|------------------------|
G|---------------------------------------|      G|------------------------|
D|-555555----------------5-555-/9-7-5-2-5|      D|-------------5-7/9-7-5p7|
A|-555555-555555-3-3-3-x---333-----------|      A|-3-3-3-3-3/7------------|
E|-333333--------------------------------|      E|------------------------|
   xxxx   xxxx   x x x x                           x x x x

Pre Chorus (0:52 - 1:03)

Guitar 1 (0:51 - 1:03)

e|------------------------------|
B|-33-----------33--------------|
G|-xx-77--------xx----7777777777|
D|-55-77-55-22--55-55-7777777777|
A|-33-55-55-22--33-55-5555555555|
E|-------33-00-----33-----------|

Guitar 2 (x) (0:51 - 1:03)

e|-------|
B|-------|
G|-777777|
D|-xxxxxx|
A|-555555|
E|-------|

Chorus (1:03 - 1:23)

Guitar 1 (2x)

e|--------------------|
B|--------------------|
G|------7777------5555|
D|-2222-7777-5555-5555|
A|-2222-5555-5555-3333|
E|-0000------3333-----|

'just sitting around hanging out this afternoon' (1:16 - 1:23)

Guitar 1 (1:17 - 1:23)

e|-33333-22222-----------|
B|-33333-33333-1111111111|
G|-44444-22222-0000000000|
D|-55555-44444-2222222222|
A|-55555-55555-3333333333|
E|-33333-22222-----------|

Guitar 2 (1:21 - 1:23)

e|-------------|
B|-------------|
G|-------------|
D|-5-5-5-5/9-5~|
A|-------------|
E|-------------|
   x x x

Verse 2 (1:23 - 1:46)

Guitar 1 (x) (1:23 - 1:46)

e|-333333-222222-00000000-2222|
B|-333333-333333-11111111-3333|
G|-444444-222222-00000000-2222|
D|-555555-444444-22222222-0000|
A|-555555-555555-33333333-----|
E|-333333-222222--------------|

Guitar 2 (1:30 - 1:35)                            (1:37 - 1:38)        (1:40 - 1:42)
- 1:46)

e|---------------------------------------------|   e|------|   e|-----------|    e|------------|
B|---3---3333---3---3333---3---3333----3---3333|   B|------|   B|-1---3-----|    B|------------|
G|-------0000-------xxxx-------0000--------0000|   G|---7--|   G|-0-0-2-0-4~|    G|------------|
D|-------0000-------0000-------xxxx--------xxxx|   D|-----7|   D|-----------|    D|-7b9-7-5-7-5|
A|-----------------------3---3-3333--3---3-3333|   A|------|   A|-----------|    A|------------|
E|-3---3------2---2----------------------------|   E|-8----|   E|-----------|    E|------------|

Pre Chorus (1:47 - 1:59)

Guitar 1 (1:47 - 1:59)

e|------------------------------|
B|-33-----------33--------------|
G|-xx-77--------xx----7777777777|
D|-55-77-55-22--55-55-7777777777|
A|-33-55-55-22--33-55-5555555555|
E|-------33-00-----33-----------|

Guitar 2 (x) (1:47 - 1:59)

e|-------|
B|-------|
G|-777777|
D|-xxxxxx|
A|-555555|
E|-------|

Chorus 2 (1:59 - 2:34)

Guitar 1 (4x) (1:59 - 2:24)

e|--------------------|
B|--------------------|
G|------7777------5555|
D|-2222-7777-5555-5555|
A|-2222-5555-5555-3333|
E|-0000------3333-----|

'just sitting around hanging out this afternoon' (2:26 - 2:34)

Guitar 1 (2:27 - 2:34)

e|-333333-222222-00000000-2222|
B|-333333-333333-11111111-3333|
G|-444444-222222-00000000-2222|
D|-555555-444444-22222222-0000|
A|-555555-555555-33333333-----|
E|-333333-222222--------------|

Guitar 2 (2:31 - 2:34)

e|-----------------|
B|-----------------|
G|-----------------|
D|----5---7b9-7-5p7|
A|-/7---7----------|
E|-----------------|

Outro (2:34 - 3:15)

Guitar 1 (4x) (2:34 - 2:58)        (3:04 - 3:15)

e|-0000-2222-3322-0000|         e|-3333-2222-0000-2222-3333-2222-0000-2222|
B|-1111-3333-3333-1111|         B|-3333-3333-1111-3333-3333-3333-1111-3333|
G|-0000-2222-0022-0000|         G|-4444-2222-0000-2222-4444-2222-0000-2222|
D|-2222-0000-0000-2222|         D|-5555-4444-2222-0000-5555-4444-2222-0000|
A|-3333------22xx-3333|         A|-5555-5555-3333------5555-5555-3333-----|
E|-----------3322-----|         E|-3333-2222-----------3333-2222----------|
                                   xxxx xxxx xxxx

Pre Chorus (3:15 - 3:27)

Guitar 1 (3:15 - 3:27)

e|------------------------------|
B|-33-----------33--------------|
G|-xx-77--------xx----7777777777|
D|-55-77-55-22--55-55-7777777777|
A|-33-55-55-22--33-55-5555555555|
E|-------33-00-----33-----------|

Guitar 2 (x) (3:15 - 3:27)

e|-------|
B|-------|
G|-777777|
D|-xxxxxx|
A|-555555|
E|-------|

End Chorus (3:27 - 4:34)

Guitar 1 (4x) (3:27 - 3:53)

e|--------------------|
B|--------------------|
G|------7777------5555|
D|-2222-7777-5555-5555|
A|-2222-5555-5555-3333|
E|-0000------3333-----|

'just sitting around hanging out this afternoon'  (3:55 - 4:34)

Guitar 1 (3:55 - 4:34)

e|-333333-222222-00000000-2222|
B|-333333-333333-11111111-3333|
G|-444444-222222-00000000-2222|
D|-555555-444444-22222222-0000|
A|-555555-555555-33333333-----|
E|-333333-222222--------------|

Guitar 2 (4:00 -

e|------------------|--------------------------|-------------------------|---------|
B|------------------|--------------------------|-------------------------|---------|
G|-------------7---7|------------7-----7-------|------------7------------|---------|
D|-5-7/9-5---9---9--|------7p9h7---9h7---9h7---|------7p9h7---9h7-7p9-5--|---------|
A|---------7--------|-7p10-------------------10|-7p10-------------------7|-7-------|
E|------------------|--------------------------|-------------------------|---------|

---------------|------------------------|
---------------|------------------------|
-7-----7-------|---------7--------------|
5p7h5---7h5---7h5-5~|---5p7h5---7h5-5---|
---------------|-7----------------------|
---------------|------------------------|

| /  slide up
| h  hammer-on
| p  pull-off
| ~  vibrato
| x  Mute note


comments
print report bad tab
16 comments total. Showing first comments.
+2 reply
Morello is god wrote on December 10 2008, 06:23 pm

need shakin hands and sex those are the best songs but otherwise good job keep it up

+1 reply
big_d wrote on December 10 2008, 09:29 pm

thanx man. will do. lol

+1 reply
Kuro-kun wrote on December 12 2008, 09:20 am

Please S.E.X. is very good Tab it please =D

I want to post or [tab]
guest
You may want to rate the tab now too:
select rating
Please do not post tabs as comments. Select "correction" instead!