Oops, an error
Loading. Please wait.

Hangnail Tab

ver3
ver3

Intro

Whole song

Interactive

More versions @911Tabs.com
3,650 views 6 this week
1 commentread comment
1 2 3 4 5
excellent!
x 2
Autoscroll
+/-
esc
set tempo
stop
Contributor
Difficulty
novice
Hey! There's an official Ultimate Guitar app which is ideal
for learning songs when you're away from computer. Get the app
WARNING: You are trying to view
                                    content from Ultimate-Guitar.com
                                    in an unauthorized application,
                                    which is prohibited.

                                    Please use an official Ultimate
                                    Guitar Tabs application for iPhone,
                                    iPad or Android to access legitimate
                                    chords, guitar, bass, and drum tabs
                                    from Ultimate-Guitar.com database.

                                    Type "ultimate guitar tabs" in Apple
                                    App Store's or Android Market's
                                    search to find the application.
Hangnail
Nickelback
Silver Side Up (2001)

Hangnail:  written by Chad Kroeger and Nickelback

NOTE: Remember, the tuning is only dropping the 6th string, not all of them.

GTR I - Standard Drop B Tuning "Chad Kroeger" (e,B,G,D,A,B)
GTR II - Standard Drop B Tuning "Ryan Peake" (e,B,G,D,A,B)

Intro

  GTR I
e|-------------------------------------------------|
B|-------------------------------------------------|
G|-------------------------------------------------|
D|-------------------------------------------------|
A|-------------------------------------------------|
B|/12-----0-----------9-10-----9-10--9-10--9-10/14-|
                      .        .

  GTR I
e|-------------------------------------------------|
B|-------------------------------------------------|
G|-------------------------------------------------|
D|-------------------------------------------------|
A|-------------------------------------------------|
B|-12----12\----------9-10-----9-10--9-10--9-10/17-|
                               .

  GTR I
e|-------------------------------------------------|
B|-------------------------------------------------|
G|-------------------------------------------------|
D|-------------------------------------------------|
A|-------------------------------------------------|
B|-15----15\----------9-10-----9-10--9-10--9-10/12-|
                      .        .

  GTR I
e|-------------------------------------------------|
B|-------------------------------------------------|
G|--------9--------7-------------------------------|
D|--------9--------7-------------------------------|
A|--------7--------5-------------------------------|
B|--0----------------------10--------9-------10----|
 |
 |GTR II
e|-------------------------------------------------|
B|-------------------------------------------------|
G|--------9--------7-------------------------------|
D|--------9--------7-------------------------------|
A|--------7--------5-------------------------------|
B|-------------------------10--------9-------10----|

Main Riff

  GTR I,II
e|-------------------------------------------------|
B|-------------------------------------------------|
G|-------------------------------------------------|
D|-------------------------------------------------|
A|-------------------------------------------------|
B|/12-----0-----------9-10-----9-10--9-10--9-10/14-|
                      .        .

  GTR I,II
e|-------------------------------------------------|
B|-------------------------------------------------|
G|-------------------------------------------------|
D|-------------------------------------------------|
A|-------------------------------------------------|
B|-12----12\----------9-10-----9-10--9-10--9-10/17-|
                               .

  GTR I,II
e|-------------------------------------------------|
B|-------------------------------------------------|
G|-------------------------------------------------|
D|-------------------------------------------------|
A|-------------------------------------------------|
B|-15----15\----------9-10-----9-10--9-10--9-10/12-|
                      .        .

  GTR I    
e|-------------------------------------------------|
B|-------------------------------------------------|
G|--------9--------7-------------------------------|
D|--------9--------7-------------------------------|
A|--------7--------5-------------------------------|
B|--0----------------------10--------9-------10----|
 |
 |GTR II
e|-------------------------------------------------|
B|-------------------------------------------------|
G|--------9--------7-------------------------------|
D|--------9--------7-------------------------------|
A|--------7--------5-------------------------------|
B|--0----------------------10--------9-------10/12-|


Verse

  GTR II
e|-------------------------------------------------|
B|-------------------------------------------------|
G|-------------------------------------------------|
D|-----------------------------4-----------6-------|
A|--------------------------5-----5-----7-----7----|
B|-----0-----------0--0--3-----------5---------/15-|
                   .  .  .  .        .  .      

  GTR II
e|-------------------------------------------------|
B|-------------------------------------------------|
G|-------------------------------------------------|
D|-----------------------------4-----------6-------|
A|--------------------------5-----5-----7-----7----|
B|-----0-----------0--0--3-----------5---------/10-|
                   .  .  .  .        .  .      

  GTR II
e|-------------------------------------------------|
B|-------------------------------------------------|
G|-------------------------------------------------|
D|-----------------------------4-----------6-------|
A|--------------------------5-----5-----7-----7----|
B|-----0-----------0--0--3-----------5-------------|
                   .  .  .  .        .  .      

  GTR II
e|-------------------------------------------------|
B|-------------------------------------------------|
G|-------------------------------------------------|
D|----11----11----11----------10-----------9-------|
A|----12----12----12----------11----------10-------|
B|----10----10----10-----------9-----------8---/12-|

  GTR II
e|-------------------------------------------------|
B|-------------------------------------------------|
G|-------------------------------------------------|
D|-----------------------------4-----------6-------|
A|--------------------------5-----5-----7-----7----|
B|-----0-----------0--0--3-----------5---------/15-|
                   .  .  .  .        .  .      

  GTR II
e|-------------------------------------------------|
B|-------------------------------------------------|
G|-------------------------------------------------|
D|-----------------------------4-----------6-------|
A|--------------------------5-----5-----7-----7----|
B|-----0-----------0--0--3-----------5---------/10-|
                   .  .  .  .        .  .      

  GTR II
e|-------------------------------------------------|
B|-------------------------------------------------|
G|-------------------------------------------------|
D|-----------------------------4-----------6-------|
A|--------------------------5-----5-----7-----7----|
B|-----0-----------0--0--3-----------5-------------|
                   .  .  .  .        .  .      

  GTR II
e|-------------------------------------------------|
B|-------------------------------------------------|
G|-------------------------------------------------|
D|----11----11----11----------10-----------9\------|
A|----12----12----12----------11----------10\------|
B|----10----10----10-----------9-----------8\------|

Pre Chorus

  GTR I
e|-------------------------------------------------|
B|-------------------------------------------------|
G|--------------------------7----------------------|
D|--------------------------7----------------------|
A|--------------------------5----------------------|
B|-------------------------------------------------|
 |
 |GTR II
e|-------------------------------------------------|
B|-------------------------------------------------|
G|(-9\)--------------------------------------------|
D|(10\)--------------------------------------------|
A|(-8\)--------------------------------------------|
B|-------------------------------------------------|

  GTR I
e|-------------------------------------------------|
B|-------------------------------------------------|
G|-------------------------------------------------|
D|-------------------------------------------------|
A|--7----------------------------------------------|
B|--5----------------------------------------------|

  GTR I
e|-------------------------------------------------|
B|-------------------------------------------------|
G|--4-----------------------7----------------------|
D|--4-----------------------7----------------------|
A|--2-----------------------5----------------------|
B|-------------------------------------------------|

  GTR I
e|-------------------------------------------------|
B|-------------------------------------------------|
G|-------------------------------------------------|
D|-------------------------------------------------|
A|--7----------------------------------------------|
B|--5----------------------------------------------|
 |
 |GTR II
e|-------------------------------------------------|
B|-------------------------------------------------|
G|-------------------------------------------------|
D|-------------------------------------------------|
A|--------x-----x-----x--x-----x-----x--x--x--x--x-|
B|--------x-----x-----x--x-----x-----x--x--x--x--x-|

Chorus

  GTR I,II
e|-------------------------------------------------|
B|-------------------------------------------------|
G|--4-----4-----4-----4----------------------------|
D|--4-----4-----4-----4----------------------------|
A|--2-----2-----2-----2-----5-----5-----5-----5----|
B|--------------------------3-----3-----3-----3----|

  GTR I,II
e|-------------------------------------------------|
B|-------------------------------------------------|
G|-------------------------------------------------|
D|-------------------------------------------------|
A|--7-----7-----7-----7-----7-----7-----7--5-------|
B|--5-----5-----5-----5-----5-----5-----5--3-------|

  GTR I,II
e|-------------------------------------------------|
B|-------------------------------------------------|
G|--4-----4-----4-----4----------------------------|
D|--4-----4-----4-----4----------------------------|
A|--2-----2-----2-----2-----5-----5-----5-----5----|
B|--------------------------3-----3-----3-----3----|

  GTR I,II
e|-------------------------------------------------|
B|-------------------------------------------------|
G|-------------------------------------------------|
D|-------------------------------------------------|
A|--7-----7-----7-----7-----7-----7-----7-----7----|
B|--5-----5-----5-----5-----5-----5-----5-----5----|

  GTR I,II
e|-------------------------------------------------|
B|-------------------------------------------------|
G|-------------------------------------------------|
D|----11----11----11----------10-----------9-------|
A|----12----12----12----------11----------10-------|
B|----10----10----10-----------9-----------8-------|

Main Riff

  GTR I,II
e|-------------------------------------------------|
B|-------------------------------------------------|
G|-------------------------------------------------|
D|-------------------------------------------------|
A|-------------------------------------------------|
B|/12-----0-----------9-10-----9-10--9-10--9-10/14-|
                      .        .

  GTR I,II
e|-------------------------------------------------|
B|-------------------------------------------------|
G|-------------------------------------------------|
D|-------------------------------------------------|
A|-------------------------------------------------|
B|-12----12\----------9-10-----9-10--9-10--9-10/17-|
                               .

  GTR I,II
e|-------------------------------------------------|
B|-------------------------------------------------|
G|-------------------------------------------------|
D|-------------------------------------------------|
A|-------------------------------------------------|
B|-15----15\----------9-10-----9-10--9-10--9-10/12-|
                      .        .

  GTR I    
e|-------------------------------------------------|
B|-------------------------------------------------|
G|--------9--------7-------------------------------|
D|--------9--------7-------------------------------|
A|--------7--------5-------------------------------|
B|--0----------------------10--------9-------10----|
 |
 |GTR II
e|-------------------------------------------------|
B|-------------------------------------------------|
G|--------9--------7-------------------------------|
D|--------9--------7-------------------------------|
A|--------7--------5-------------------------------|
B|--0----------------------10--------9-------10/12-|

Verse

  GTR II
e|-------------------------------------------------|
B|-------------------------------------------------|
G|-------------------------------------------------|
D|-----------------------------4-----------6-------|
A|--------------------------5-----5-----7-----7----|
B|-----0-----------0--0--3-----------5---------/15-|
                   .  .  .  .        .  .      

  GTR II
e|-------------------------------------------------|
B|-------------------------------------------------|
G|-------------------------------------------------|
D|-----------------------------4-----------6-------|
A|--------------------------5-----5-----7-----7----|
B|-----0-----------0--0--3-----------5---------/10-|
                   .  .  .  .        .  .      

  GTR II
e|-------------------------------------------------|
B|-------------------------------------------------|
G|-------------------------------------------------|
D|-----------------------------4-----------6-------|
A|--------------------------5-----5-----7-----7----|
B|-----0-----------0--0--3-----------5-------------|
                   .  .  .  .        .  .      

  GTR II
e|-------------------------------------------------|
B|-------------------------------------------------|
G|-------------------------------------------------|
D|----11----11----11----------10-----------9-------|
A|----12----12----12----------11----------10-------|
B|----10----10----10-----------9-----------8---/12-|

  GTR II
e|-------------------------------------------------|
B|-------------------------------------------------|
G|-------------------------------------------------|
D|-----------------------------4-----------6-------|
A|--------------------------5-----5-----7-----7----|
B|-----0-----------0--0--3-----------5---------/15-|
                   .  .  .  .        .  .      

  GTR II
e|-------------------------------------------------|
B|-------------------------------------------------|
G|-------------------------------------------------|
D|-----------------------------4-----------6-------|
A|--------------------------5-----5-----7-----7----|
B|-----0-----------0--0--3-----------5---------/10-|
                   .  .  .  .        .  .      

  GTR II
e|-------------------------------------------------|
B|-------------------------------------------------|
G|-------------------------------------------------|
D|-----------------------------4-----------6-------|
A|--------------------------5-----5-----7-----7----|
B|-----0-----------0--0--3-----------5-------------|
                   .  .  .  .        .  .      

  GTR II
e|-------------------------------------------------|
B|-------------------------------------------------|
G|-------------------------------------------------|
D|----11----11----11----------10-----------9\------|
A|----12----12----12----------11----------10\------|
B|----10----10----10-----------9-----------8\------|

Pre Chorus

  GTR I
e|-------------------------------------------------|
B|-------------------------------------------------|
G|--------------------------7----------------------|
D|--------------------------7----------------------|
A|--------------------------5----------------------|
B|-------------------------------------------------|
 |
 |GTR II
e|-------------------------------------------------|
B|-------------------------------------------------|
G|(-9\)--------------------------------------------|
D|(10\)--------------------------------------------|
A|(-8\)--------------------------------------------|
B|-------------------------------------------------|

  GTR I
e|-------------------------------------------------|
B|-------------------------------------------------|
G|-------------------------------------------------|
D|-------------------------------------------------|
A|--7----------------------------------------------|
B|--5----------------------------------------------|

  GTR I
e|-------------------------------------------------|
B|-------------------------------------------------|
G|--4-----------------------7----------------------|
D|--4-----------------------7----------------------|
A|--2-----------------------5----------------------|
B|-------------------------------------------------|

  GTR I
e|-------------------------------------------------|
B|-------------------------------------------------|
G|-------------------------------------------------|
D|-------------------------------------------------|
A|--7----------------------------------------------|
B|--5----------------------------------------------|
 |
 |GTR II
e|-------------------------------------------------|
B|-------------------------------------------------|
G|-------------------------------------------------|
D|-------------------------------------------------|
A|--------x-----x-----x--x-----x-----x--x--x--x--x-|
B|--------x-----x-----x--x-----x-----x--x--x--x--x-|

Chorus

  GTR I,II
e|-------------------------------------------------|
B|-------------------------------------------------|
G|--4-----4-----4-----4----------------------------|
D|--4-----4-----4-----4----------------------------|
A|--2-----2-----2-----2-----5-----5-----5-----5----|
B|--------------------------3-----3-----3-----3----|

  GTR I,II
e|-------------------------------------------------|
B|-------------------------------------------------|
G|-------------------------------------------------|
D|-------------------------------------------------|
A|--7-----7-----7-----7-----7-----7-----7--5-------|
B|--5-----5-----5-----5-----5-----5-----5--3-------|

  GTR I,II
e|-------------------------------------------------|
B|-------------------------------------------------|
G|--4-----4-----4-----4----------------------------|
D|--4-----4-----4-----4----------------------------|
A|--2-----2-----2-----2-----5-----5-----5-----5----|
B|--------------------------3-----3-----3-----3----|

  GTR I,II
e|-------------------------------------------------|
B|-------------------------------------------------|
G|-------------------------------------------------|
D|-------------------------------------------------|
A|--7-----7-----7-----7-----7-----7-----7--5-------|
B|--5-----5-----5-----5-----5-----5-----5--3-------|

  GTR I,II
e|-------------------------------------------------|
B|-------------------------------------------------|
G|--4-----4----------------------------------------|
D|--4-----4----------------------------------------|
A|--2-----2-----------x--x--5-----5-----------x--x-|
B|--------------------x--x--3-----3-----------x--x-|

  GTR I,II
e|-------------------------------------------------|
B|-------------------------------------------------|
G|-------------------------------------------------|
D|-------------------------------------------------|
A|--7-----7-----7-----7-----7-----7-----7--5-------|
B|--5-----5-----5-----5-----5-----5-----5--3-------|

  GTR I,II
e|-------------------------------------------------|
B|-------------------------------------------------|
G|--4-----4----------------------------------------|
D|--4-----4----------------------------------------|
A|--2-----2-----------x--x--5-----5-----------x--x-|
B|--------------------x--x--3-----3-----------x--x-|

  GTR I,II
e|-------------------------------------------------|
B|-------------------------------------------------|
G|-------------------------------------------------|
D|-------------------------------------------------|
A|--7-----7-----7-----7-----7-----7-----7-----7----|
B|--5-----5-----5-----5-----5-----5-----5-----5----|

  GTR I,II
e|-------------------------------------------------|
B|-------------------------------------------------|
G|-------------------------------------------------|
D|----11----11----11----------10-----------9-------|
A|----12----12----12----------11----------10-------|
B|----10----10----10-----------9-----------8-------|

Bridge

  GTR I
e|-------------------------------------------------|
B|-------------------------------------------------|
G|--------------------7\---------------------------|
D|--1b---------r1-----7\---------------------------|
A|--------------------5\-------0-----0--5----------|
B|--------------------------------0-----------4~---|
                                  .

  GTR I
e|-------------------------------------------------|
B|-------------------------------------------------|
G|--------------------7\---------------------------|
D|--1b---------r1-----7\---------------------------|
A|--------------------5\-------0-----0--5----------|
B|--------------------------------0-----------4~---|
 |                                .
 |GTR II
e|-------------------------------------------------|
B|-------------------------------------------------|
G|-------------------------------------------------|
D|-------------------------------------------------|
A|-----------------------------0-----0--5----------|
B|--------------------------------0-----------4~---|
                                  .

  GTR I,II
e|-------------------------------------------------|
B|-------------------------------------------------|
G|--------------------7\---------------------------|
D|--1b---------r1-----7\---------------------------|
A|--------------------5\-------0-----0--5----------|
B|--------------------------------0-----------4~---|
                                  .

  GTR I,II
e|-------------------------------------------------|
B|-------------------------------------------------|
G|--------------------7\---------------------------|
D|--1b---------r1-----7\---------------------------|
A|--------------------5\----------5-----5/-7-------|
B|--------------------------------3-----3/-5-------|
                                   
  GTR I,II
e|-------------------------------------------------|
B|-------------------------------------------------|
G|--------------------7\---------------------------|
D|--1b---------r1-----7\---------------------------|
A|--------------------5\-------0-----0--5----------|
B|--------------------------------0-----------4~---|
                                  .

  GTR I,II
e|-------------------------------------------------|
B|-------------------------------------------------|
G|--------------------7\---------------------------|
D|--1b---------r1-----7\---------------------------|
A|--------------------5\-------0-----0--5----------|
B|--------------------------------0-----------4~---|
                                  .

  GTR I,II
e|-------------------------------------------------|
B|-------------------------------------------------|
G|--------------------7\---------------------------|
D|--1b---------r1-----7\---------------------------|
A|--------------------5\-------0-----0--5----------|
B|--------------------------------0-----------4~---|
                                  .

  GTR I,II
e|-------------------------------------------------|
B|-------------------------------------------------|
G|--------------------7\---------------------------|
D|--1b---------r1-----7\---------------------------|
A|--------------------5\-------0-----0--5----------|
B|--------------------------------0-----------4~---|
                                  .

  GTR I,II
e|-------------------------------------------------|
B|-------------------------------------------------|
G|-------------------------------------------------|
D|----11----11----11----------10-----------9\------|
A|----12----12----12----------11----------10\------|
B|----10----10----10-----------9-----------8\------|

Pre Chorus

  GTR I
e|-------------------------------------------------|
B|-------------------------------------------------|
G|--------------------------7----------------------|
D|--------------------------7----------------------|
A|--------------------------5----------------------|
B|-------------------------------------------------|
 |
 |GTR II
e|-------------------------------------------------|
B|-------------------------------------------------|
G|(-9\)--------------------------------------------|
D|(10\)--------------------------------------------|
A|(-8\)--------------------------------------------|
B|-------------------------------------------------|

  GTR I
e|-------------------------------------------------|
B|-------------------------------------------------|
G|-------------------------------------------------|
D|-------------------------------------------------|
A|--7----------------------------------------------|
B|--5----------------------------------------------|

  GTR I
e|-------------------------------------------------|
B|-------------------------------------------------|
G|--4-----------------------7----------------------|
D|--4-----------------------7----------------------|
A|--2-----------------------5----------------------|
B|-------------------------------------------------|

  GTR I
e|-------------------------------------------------|
B|-------------------------------------------------|
G|-------------------------------------------------|
D|-------------------------------------------------|
A|--7----------------------------------------------|
B|--5----------------------------------------------|
 |
 |GTR II
e|-------------------------------------------------|
B|-------------------------------------------------|
G|-------------------------------------------------|
D|-------------------------------------------------|
A|--------x-----x-----x--x-----x-----x--x--x--x--x-|
B|--------x-----x-----x--x-----x-----x--x--x--x--x-|

Chorus

  GTR I,II
e|-------------------------------------------------|
B|-------------------------------------------------|
G|--4-----4-----4-----4----------------------------|
D|--4-----4-----4-----4----------------------------|
A|--2-----2-----2-----2-----5-----5-----5-----5----|
B|--------------------------3-----3-----3-----3----|

  GTR I,II
e|-------------------------------------------------|
B|-------------------------------------------------|
G|-------------------------------------------------|
D|-------------------------------------------------|
A|--7-----7-----7-----7-----7-----7-----7--5-------|
B|--5-----5-----5-----5-----5-----5-----5--3-------|

  GTR I,II
e|-------------------------------------------------|
B|-------------------------------------------------|
G|--4-----4-----4-----4----------------------------|
D|--4-----4-----4-----4----------------------------|
A|--2-----2-----2-----2-----5-----5-----5-----5----|
B|--------------------------3-----3-----3-----3----|

  GTR I,II
e|-------------------------------------------------|
B|-------------------------------------------------|
G|-------------------------------------------------|
D|-------------------------------------------------|
A|--7-----7-----7-----7-----7-----7-----7--5-------|
B|--5-----5-----5-----5-----5-----5-----5--3-------|

  GTR I,II
e|-------------------------------------------------|
B|-------------------------------------------------|
G|--4-----4----------------------------------------|
D|--4-----4----------------------------------------|
A|--2-----2-----------x--x--5-----5-----------x--x-|
B|--------------------x--x--3-----3-----------x--x-|

  GTR I,II
e|-------------------------------------------------|
B|-------------------------------------------------|
G|-------------------------------------------------|
D|-------------------------------------------------|
A|--7-----7-----7-----7-----7-----7-----7--5-------|
B|--5-----5-----5-----5-----5-----5-----5--3-------|

  GTR I,II
e|-------------------------------------------------|
B|-------------------------------------------------|
G|--4-----4----------------------------------------|
D|--4-----4----------------------------------------|
A|--2-----2-----------x--x--5-----5-----------x--x-|
B|--------------------x--x--3-----3-----------x--x-|

  GTR I,II
e|-------------------------------------------------|
B|-------------------------------------------------|
G|-------------------------------------------------|
D|-------------------------------------------------|
A|--7-----7-----7-----7-----7-----7-----7-----5----|
B|--5-----5-----5-----5-----5-----5-----5-----3----|

  GTR I,II
e|-------------------------------------------------|
B|-------------------------------------------------|
G|-------------------------------------------------|
D|----11----11----11----------10-----------9-------|
A|----12----12----12----------11----------10-------|
B|----10----10----10-----------9-----------8-------|

Outro

  GTR I   
e|-------------------------------------------------|
B|-------------------------------------------------|
G|-------------------------------------------------|
D|-------------------------------------------------|
A|-------------------------------------------------|
B|/12-----0-----------9-10-----9-10--9-10--9-10/14-|
 |                    .        .
 |GTR II
e|-------------------------------------------------|
B|-------------------------------------------------|
G|-------------------------------------------------|
D|-------------------------------------------------|
A|/14----14----------11h12-------------------------|
B|-------------------------------------------------|


  GTR I,II
e|-------------------------------------------------|
B|-------------------------------------------------|
G|-------------------------------------------------|
D|-------------------------------------------------|
A|-------------------------------------------------|
B|-12----12\----------9-10-----9-10--9-10--9-10/17-|
 |                             .
 |GTR II
e|-------------------------------------------------|
B|-------------------------------------------------|
G|-------------------------------------------------|
D|-------------------------------------------------|
A|/14----------------11h12-------------------------|
B|-------------------------------------------------|

  GTR I,II
e|-------------------------------------------------|
B|-------------------------------------------------|
G|-------------------------------------------------|
D|-------------------------------------------------|
A|-------------------------------------------------|
B|-15----15\----------9-10-----9-10--9-10--9-10/12-|
 |                    .        .
 |GTR II
e|-------------------------------------------------|
B|-------------------------------------------------|
G|-------------------------------------------------|
D|-------------------------------------------------|
A|/17----17----------11h12----------------------16\|
B|-------------------------------------------------|

  GTR I    
e|-------------------------------------------------|
B|-------------------------------------------------|
G|--------9--------7-------------------------------|
D|--------9--------7-------------------------------|
A|--------7--------5-------------------------------|
B|--0----------------------10--------9-------10----|
 |
 |GTR II
e|-------------------------------------------------|
B|-------------------------------------------------|
G|-------------------------------------------------|
D|-------14-------12-------------------------------|
A|-------------------------12-------11-------12----|
B|-------------------------------------------------|

  GTR I   
e|-------------------------------------------------|
B|-------------------------------------------------|
G|-------------------------------------------------|
D|-------------------------------------------------|
A|-------------------------------------------------|
B|/12-----0-----------9-10-----9-10--9-10--9-10/14-|
 |                    .        .
 |GTR II
e|-------------------------------------------------|
B|-------------------------------------------------|
G|-------------------------------------------------|
D|-------------------------------------------------|
A|/14----14----------11h12-------------------------|
B|-------------------------------------------------|


  GTR I,II
e|-------------------------------------------------|
B|-------------------------------------------------|
G|-------------------------------------------------|
D|-------------------------------------------------|
A|-------------------------------------------------|
B|-12----12\----------9-10-----9-10--9-10--9-10/17-|
 |                             .
 |GTR II
e|-------------------------------------------------|
B|-------------------------------------------------|
G|-------------------------------------------------|
D|-------------------------------------------------|
A|/14----------------11h12-------------------------|
B|-------------------------------------------------|

  GTR I,II
e|-------------------------------------------------|
B|-------------------------------------------------|
G|-------------------------------------------------|
D|-------------------------------------------------|
A|-------------------------------------------------|
B|-15----15\----------9-10-----9-10--9-10--9-10/12-|
 |                    .        .
 |GTR II
e|-------------------------------------------------|
B|-------------------------------------------------|
G|-------------------------------------------------|
D|-------------------------------------------------|
A|/17----17----------11h12----------------------16\|
B|-------------------------------------------------|

  GTR I    
e|-------------------------------------------------|
B|-------------------------------------------------|
G|--------9--------7-------------------------------|
D|--------9--------7-------------------------------|
A|--------7--------5-------------------------------|
B|--0----------------------10--------9-------10----|
 |
 |GTR II
e|-------------------------------------------------|
B|-------------------------------------------------|
G|-------------------------------------------------|
D|-------14-------12-------------------------------|
A|-------------------------12-------11-------12----|
B|-------------------------------------------------|

  GTR I    
e|-------------------------------------------------|
B|-------------------------------------------------|
G|--------9--------7-------------------------------|
D|--------9--------7-------------------------------|
A|--------7--------5-------------------------------|
B|--0----------------------10--------9-------10----|
 |
 |GTR II
e|-------------------------------------------------|
B|-------------------------------------------------|
G|-------------------------14-------13-------14----|
D|-------14-------12-------------------------------|
A|-------------------------------------------------|
B|-------------------------------------------------|

  GTR I    
e|-------------------------------------------------|
B|-------------------------------------------------|
G|--------9--------7-------------------------------|
D|--------9--------7-------------------------------|
A|--------7--------5-------------------------------|
B|--0----------------------10--------9-------10----|
 |
 |GTR II
e|-------------------------------------------------|
B|-------------------------------------------------|
G|-------------------------14-------13-------14----|
D|-------14-------12--------x--------x--------x----|
A|-------------------------12-------11-------12----|
B|-------------------------------------------------|

  GTR I,II
e|-------------------------------------------------|
B|-------------------------------------------------|
G|-------------------------------------------------|
D|-------------------------------------------------|
A|-------------------------------------------------|
B|/12-----0----------------------------------------|


| b  bend
| r  release bend
|PH. pinch harmonic
|fbk feedback
|(2) sustained note
| .  palm-mute
| /  slide up
| \  slide down
| h  hammer-on
| p  pull-off
| ~  vibrato
| +  harmonic
| x  Mute note
===============================================================================
comments
We did not receive enough feedback on this tab! Please rate:
print report bad tab
1 2 3 4 5
1 comment total.
0 reply
Seasons_Change wrote on September 7 2010, 12:02 am

WTF, odd tuning, but i like it after playing around with it for a bit. good song, too.

I want to post or [tab]
guest
You may want to rate the tab now too:
select rating
Please do not post tabs as comments. Select "correction" instead!