Oops, an error
Loading. Please wait.

Hollywood Tab

ver7
ver7
More versions @911Tabs.com
670 views 9 this week
no commentswrite comment
1 2 3 4 5
excellent!
x 1
add to favorites launch autoscroll
font size
0
reset
Autoscroll
+/-
esc
set tempo
stop
Contributor
Difficulty
Tuning
novice
C G C F A D
WARNING: You are trying to view
                                    content from Ultimate-Guitar.com
                                    in an unauthorized application,
                                    which is prohibited.

                                    Please use an official Ultimate
                                    Guitar Tabs application for iPhone,
                                    iPad or Android to access legitimate
                                    chords, guitar, bass, and drum tabs
                                    from Ultimate-Guitar.com database.

                                    Type "ultimate guitar tabs" in Apple
                                    App Store's or Android Market's
                                    search to find the application.
Hollywood
Nickelback
Silver Side Up (2001)

Hollywood:  written by Chad Kroeger and Nickelback

NOTE: The bridge and solo get kind of confusing, but if you want to play
with 2 guitars, mesh guitar 3 and 4 together and let guitar 2 play that.

GTR I - Drop C Tuning "Chad Kroeger" (d,A,F,C,G,C)
GTR II - Drop C Tuning "Ryan Peake" (d,A,F,C,G,C)
GTR III - Drop C Tuning "Wah Fill" (d,A,F,C,G,C)
GTR IV - Drop C Tuning "Solo w Wah" (d,A,F,C,G,C)

Intro

  GTR I,II
d|-------------------------------------------------|
A|-------------------------------------------------|
F|-------------------------------------------------|
C|-------------------------------------------------|
G|-12b-----r10-------12b-----r10--------x--x-------|
C|-12b-----r10-------12b-----r10--------x--x-------|

  GTR I,II
d|-------------------------------------------------|
A|-------------------------------------------------|
F|-------------------------------------------------|
C|-------------------------------------------------|
G|-12b-----r10-----5--7--5/10-10--7--5--7\---------|
C|-12b-----r10-----5--7--5/10-10--7--5--7\----0--0-|
                                              .  .

  GTR I,II
d|-------------------------------------------------|
A|-------------------------------------------------|
F|-------------------------------------------------|
C|-------------------------------------------------|
G|-12b-----r10-------12b-----r10--------x--x-------|
C|-12b-----r10-------12b-----r10--------x--x-------|

  GTR I,II
d|-------------------------------------------------|
A|-------------------------------------------------|
F|-------------------------------------------------|
C|-------------------------------------------------|
G|-12b-----r10-----5--7--5/10-10--7--5--7\---------|
C|-12b-----r10-----5--7--5/10-10--7--5--7\----0--0-|
                                              .  .
Pre Verse

  GTR I
d|-------------------------------------------------|
A|-------------------------------------------------|
F|-------------------------------------------------|
C|-------------------------------------------------|
G|--0-----------------0----------------------------|
C|--0-------10~-------0-------10~------------------|
 |
 |GTR II
d|-------------------------------------------------|
A|-------------------------------------------------|
F|-------------------------------------------------|
C|-------------------------------------------------|
G|-12b-----r10-------12b-----r10-------------------|
C|-12b-----r10-------12b-----r10-------------------|

  GTR I
d|-------------------------------------------------|
A|-------------------------------------------------|
F|-------------------------------------------------|
C|-------------------------------------------------|
G|--0--------------5--7--5/10-10--7--5--7----10----|
C|--0-------10~----5--7--5/10-10--7--5--7----10----|
 |
 |GTR II
d|-------------------------------------------------|
A|-------------------------------------------------|
F|-------------------------------------------------|
C|-------------------------------------------------|
G|-12b-----r10-----5--7--5/10-10--7--5--7----10----|
C|-12b-----r10-----5--7--5/10-10--7--5--7----10----|

  GTR I
d|-------------------------------------------------|
A|-------------------------------------------------|
F|-------------------------------------------------|
C|-------------------------------------------------|
G|--0-----------------0----------------------------|
C|--0-------10~-------0-------10~------------------|
 |
 |GTR II
d|-------------------------------------------------|
A|-------------------------------------------------|
F|-------------------------------------------------|
C|-------------------------------------------------|
G|-12b-----r10-------12b-----r10-------------------|
C|-12b-----r10-------12b-----r10-------------------|

  GTR I
d|-------------------------------------------------|
A|-------------------------------------------------|
F|-------------------------------------------------|
C|-------------------------------------------------|
G|--0--------------5--7--5/10-10--7--5--7\---------|
C|--0-------10~----5--7--5/10-10--7--5--7\---------|
 |
 |GTR II
d|-------------------------------------------------|
A|-------------------------------------------------|
F|-------------------------------------------------|
C|-------------------------------------------------|
G|-12b-----r10-----5--7--5/10-10--7--5--7\---------|
C|-12b-----r10-----5--7--5/10-10--7--5--7\---------|

Verse

  GTR I
d|-------------------------------------------------|
A|-------------------------------------------------|
F|-------------------------------------------------|
C|-------------------------------------------------|
G|-------------------------------------------------|
C|-12-12-12-10-------12-12-12-10-------------------|
 |  .  .  .  .        .  .  .  .
 |GTR II
d|-------------------------------------------------|
A|-------------------------------------------------|
F|-------------------------------------------------|
C|-------------------------------------------------|
G|-------------------------------------------------|
C|-12b-----r10-------12b-----r10-------------------|

  GTR I
d|-------------------------------------------------|
A|-------------------------------------------------|
F|-------------------------------------------------|
C|-------------------------------------------------|
G|-------------------------------------------------|
C|-12-12-12-10-----5--7--5/10-10--7--5--7~---------|
 |  .  .  .  .     .  .  .        .  .
 |GTR II
d|-------------------------------------------------|
A|-------------------------------------------------|
F|-------------------------------------------------|
C|-------------------------------------------------|
G|-------------------------------------------------|
C|-12b-----r10-----5--7--5/10-10--7--5--7~---------|

  GTR I
d|-------------------------------------------------|
A|-------------------------------------------------|
F|-------------------------------------------------|
C|-------------------------------------------------|
G|-------------------------------------------------|
C|-12-12-12-10-------12-12-12-10-------------------|
 |  .  .  .  .        .  .  .  .
 |GTR II
d|-------------------------------------------------|
A|-------------------------------------------------|
F|-------------------------------------------------|
C|-------------------------------------------------|
G|-------------------------------------------------|
C|-12b-----r10-------12b-----r10-------------------|

  GTR I
d|-------------------------------------------------|
A|-------------------------------------------------|
F|-------------------------------------------------|
C|-------------------------------------------------|
G|-------------------------------------------------|
C|-12-12-12-10-----5--7--5/10-10--7--5--7~---------|
 |  .  .  .  .     .  .  .        .  .
 |GTR II
d|-------------------------------------------------|
A|-------------------------------------------------|
F|-------------------------------------------------|
C|-------------------------------------------------|
G|-------------------------------------------------|
C|-12b-----r10-----5--7--5/10-10--7--5--7~---------|

Pre Verse

  GTR I
d|-------------------------------------------------|
A|-------------------------------------------------|
F|-------------------------------------------------|
C|-------------------------------------------------|
G|--0-----------------0----------------------------|
C|--0-------10~-------0-------10~------------------|
 |
 |GTR II
d|-------------------------------------------------|
A|-------------------------------------------------|
F|-------------------------------------------------|
C|-------------------------------------------------|
G|-12b-----r10-------12b-----r10-------------------|
C|-12b-----r10-------12b-----r10-------------------|

  GTR I
d|-------------------------------------------------|
A|-------------------------------------------------|
F|-------------------------------------------------|
C|-------------------------------------------------|
G|--0--------------5--7--5/10-10--7--5--7----10----|
C|--0-------10~----5--7--5/10-10--7--5--7----10----|
 |
 |GTR II
d|-------------------------------------------------|
A|-------------------------------------------------|
F|-------------------------------------------------|
C|-------------------------------------------------|
G|-12b-----r10-----5--7--5/10-10--7--5--7----10----|
C|-12b-----r10-----5--7--5/10-10--7--5--7----10----|

  GTR I
d|-------------------------------------------------|
A|-------------------------------------------------|
F|-------------------------------------------------|
C|-------------------------------------------------|
G|--0-----------------0----------------------------|
C|--0-------10~-------0-------10~------------------|
 |
 |GTR II
d|-------------------------------------------------|
A|-------------------------------------------------|
F|-------------------------------------------------|
C|-------------------------------------------------|
G|-12b-----r10-------12b-----r10-------------------|
C|-12b-----r10-------12b-----r10-------------------|

  GTR I
d|-------------------------------------------------|
A|-------------------------------------------------|
F|-------------------------------------------------|
C|-------------------------------------------------|
G|--0--------------5--7--5/10-10--7--5--7\---------|
C|--0-------10~----5--7--5/10-10--7--5--7\---------|
 |
 |GTR II
d|-------------------------------------------------|
A|-------------------------------------------------|
F|-------------------------------------------------|
C|-------------------------------------------------|
G|-12b-----r10-----5--7--5/10-10--7--5--7\---------|
C|-12b-----r10-----5--7--5/10-10--7--5--7\---------|

Verse

  GTR I
d|-------------------------------------------------|
A|-------------------------------------------------|
F|-------------------------------------------------|
C|-------------------------------------------------|
G|-------------------------------------------------|
C|-12-12-12-10-------12-12-12-10-------------------|
 |  .  .  .  .        .  .  .  .
 |GTR II
d|-------------------------------------------------|
A|-------------------------------------------------|
F|-------------------------------------------------|
C|-------------------------------------------------|
G|-------------------------------------------------|
C|-12b-----r10-------12b-----r10-------------------|

  GTR I
d|-------------------------------------------------|
A|-------------------------------------------------|
F|-------------------------------------------------|
C|-------------------------------------------------|
G|-------------------------------------------------|
C|-12-12-12-10-----5--7--5/10-10--7--5--7~---------|
 |  .  .  .  .     .  .  .        .  .
 |GTR II
d|-------------------------------------------------|
A|-------------------------------------------------|
F|-------------------------------------------------|
C|-------------------------------------------------|
G|-------------------------------------------------|
C|-12b-----r10-----5--7--5/10-10--7--5--7~---------|

  GTR I
d|-------------------------------------------------|
A|-------------------------------------------------|
F|-------------------------------------------------|
C|-------------------------------------------------|
G|-------------------------------------------------|
C|-12-12-12-10-------12-12-12-10-------------------|
 |  .  .  .  .        .  .  .  .
 |GTR II
d|-------------------------------------------------|
A|-------------------------------------------------|
F|-------------------------------------------------|
C|-------------------------------------------------|
G|-------------------------------------------------|
C|-12b-----r10-------12b-----r10-------------------|

  GTR I
d|-------------------------------------------------|
A|-------------------------------------------------|
F|-------------------------------------------------|
C|-------------------------------------------------|
G|-------------------------------------------------|
C|-12-12-12-10-----5--7--5/10-10--7--5--7~---------|
 |  .  .  .  .     .  .  .        .  .
 |GTR II
d|-------------------------------------------------|
A|-------------------------------------------------|
F|-------------------------------------------------|
C|-------------------------------------------------|
G|-------------------------------------------------|
C|-12b-----r10-----5--7--5/10-10--7--5--7~---------|

Chorus

  GTR I
d|-------------------------------------------------|
A|-------------------------------------------------|
F|-------------------------------------------------|
C|-------------------------------------------------|
G|--0-----------------0----------------------------|
C|--0-------10~-------0-------10~------------------|
 |
 |GTR II
d|-------------------------------------------------|
A|-------------------------------------------------|
F|-------------------------------------------------|
C|-------------------------------------------------|
G|-12b-----r10-------12b-----r10-------------------|
C|-12b-----r10-------12b-----r10-------------------|

  GTR I
d|-------------------------------------------------|
A|-------------------------------------------------|
F|-------------------------------------------------|
C|-------------------------------------------------|
G|--0----------------------------------------------|
C|--0-------10~------------------------------------|
 |
 |GTR II
d|-------------------------------------------------|
A|-------------------------------------------------|
F|-------------------------------------------------|
C|-------------------------------------------------|
G|-12b-----r10-------------------------------------|
C|-12b-----r10-------------------------------------|

  GTR I
d|-------------------------------------------------|
A|-------------------------------------------------|
F|-------------------------------------------------|
C|-------------------------------------------------|
G|--0-----------------0----------------------------|
C|--0-------10~-------0-------10~------------------|
 |
 |GTR II
d|-------------------------------------------------|
A|-------------------------------------------------|
F|-------------------------------------------------|
C|-------------------------------------------------|
G|-12b-----r10-------12b-----r10-------------------|
C|-12b-----r10-------12b-----r10-------------------|

  GTR I
d|-------------------------------------------------|
A|-------------------------------------------------|
F|-------------------------------------------------|
C|-------------------------------------------------|
G|--0----------------------------------------------|
C|--0-------10~------------------------------------|
 |
 |GTR II
d|-------------------------------------------------|
A|-------------------------------------------------|
F|-------------------------------------------------|
C|-------------------------------------------------|
G|-12b-----r10-------------------------------------|
C|-12b-----r10-------------------------------------|

  GTR I
d|-------------------------------------------------|
A|-------------------------------------------------|
F|-------------------------------------------------|
C|-------------------------------------------------|
G|--0-----------------0----------------------------|
C|--0-------10~-------0-------10~------------------|
 |
 |GTR II
d|-------------------------------------------------|
A|-------------------------------------------------|
F|-------------------------------------------------|
C|-------------------------------------------------|
G|-12b-----r10-------12b-----r10-------------------|
C|-12b-----r10-------12b-----r10-------------------|

  GTR I
d|-------------------------------------------------|
A|-------------------------------------------------|
F|-------------------------------------------------|
C|-------------------------------------------------|
G|--0----------------------------------------------|
C|--0-------10~------------------------------------|
 |
 |GTR II
d|-------------------------------------------------|
A|-------------------------------------------------|
F|-------------------------------------------------|
C|-------------------------------------------------|
G|-12b-----r10-------------------------------------|
C|-12b-----r10-------------------------------------|

  GTR I
d|-------------------------------------------------|
A|-------------------------------------------------|
F|-------------------------------------------------|
C|-------------------------------------------------|
G|--0-----------------0----------------------------|
C|--0-------10~-------0-------10~------------------|
 |
 |GTR II
d|-------------------------------------------------|
A|-------------------------------------------------|
F|-------------------------------------------------|
C|-------------------------------------------------|
G|-12b-----r10-------12b-----r10-------------------|
C|-12b-----r10-------12b-----r10-------------------|

  GTR I
d|-------------------------------------------------|
A|-------------------------------------------------|
F|-------------------------------------------------|
C|-------------------------------------------------|
G|--0--------------5--7--5/10-10--7--5--7\---------|
C|--0-------10~----5--7--5/10-10--7--5--7\---------|
 |
 |GTR II
d|-------------------------------------------------|
A|-------------------------------------------------|
F|-------------------------------------------------|
C|-------------------------------------------------|
G|-12b-----r10-----5--7--5/10-10--7--5--7\---------|
C|-12b-----r10-----5--7--5/10-10--7--5--7\---------|

Bridge

  GTR I
d|-------------------------------------------------|
A|-------------------------------------------------|
F|-------------------------------------------------|
C|-------------------------------------------------|
G|--0-----------------0----------------------------|
C|--0-------10~-------0-------10~------------------|
 |
 |GTR II
d|-------------------------------------------------|
A|-------------------------------------------------|
F|-------------------------------------------------|
C|-------------------------------------------------|
G|-12b-----r10-------12b-----r10-------------------|
C|-12b-----r10-------12b-----r10-------------------|
 |
 |GTR III
d|-------------------------------------------------|
A|-------------------------------------------------|
F|-------------------------------------------------|
C|-------------------------------------------------|
G|-----------------------------------7--5--5--5--7-|
C|-----------------------------------7--5--5--5--7-|

  GTR I
d|-------------------------------------------------|
A|-------------------------------------------------|
F|-------------------------------------------------|
C|-------------------------------------------------|
G|--0----------------------------------------------|
C|--0-------10~------------------------------------|
 |
 |GTR II
d|-------------------------------------------------|
A|-------------------------------------------------|
F|-------------------------------------------------|
C|-------------------------------------------------|
G|-12b-----r10-------------------------------------|
C|-12b-----r10-------------------------------------|
 |
 |GTR III
d|-------------------------------------------------|
A|-------------------------------------------------|
F|-------------------------------------------------|
C|-------------------------------------------------|
G|-----------------5--7--5/10-10--7--5--7\---------|
C|-----------------5--7--5/10-10--7--5--7\---------|

  GTR I
d|-------------------------------------------------|
A|-------------------------------------------------|
F|-------------------------------------------------|
C|-------------------------------------------------|
G|--0-----------------0----------------------------|
C|--0-------10~-------0-------10~------------------|
 |
 |GTR II
d|-------------------------------------------------|
A|-------------------------------------------------|
F|-------------------------------------------------|
C|-------------------------------------------------|
G|-12b-----r10-------12b-----r10-------------------|
C|-12b-----r10-------12b-----r10-------------------|
 |
 |GTR III
d|-------------------------------------------------|
A|-------------------------------------------------|
F|-------------------------------------------------|
C|-------------------------------------------------|
G|-----------------------------------7--5--5--5--7-|
C|-----------------------------------7--5--5--5--7-|

  GTR I
d|-------------------------------------------------|
A|-------------------------------------------------|
F|-------------------------------------------------|
C|-------------------------------------------------|
G|--0----------------------------------------------|
C|--0-------10~------------------------------------|
 |
 |GTR II
d|-------------------------------------------------|
A|-------------------------------------------------|
F|-------------------------------------------------|
C|-------------------------------------------------|
G|-12b-----r10-------------------------------------|
C|-12b-----r10-------------------------------------|
 |
 |GTR III
d|-------------------------------------------------|
A|-------------------------------------------------|
F|-------------------------------------------------|
C|-------------------------------------------------|
G|-----------------5--7--5/10-10--7--5--7\---------|
C|-----------------5--7--5/10-10--7--5--7\---------|
 |
 |GTR IV
d|-------------------------------------------------|
A|-----------------/--------------/-----------/----|
F|-----------------/--------------/-----------/----|
C|-----------------/--------------/-----------/----|
G|-------------------------------------------------|
C|-------------------------------------------------|

Guitar Solo

  GTR I
d|-------------------------------------------------|
A|-------------------------------------------------|
F|-------------------------------------------------|
C|-------------------------------------------------|
G|--0-----------------0----------------------------|
C|--0-------10~-------0-------10~------------------|
 |
 |GTR II
d|-------------------------------------------------|
A|-------------------------------------------------|
F|-------------------------------------------------|
C|-------------------------------------------------|
G|-12b-----r10-------12b-----r10-------------------|
C|-12b-----r10-------12b-----r10-------------------|
 |
 |GTR IV
d|-------------------------------------------------|
A|-------------------------------------------------|
F|-----------------------------------------5-------|
C|-16~------14-------16~------14-----5--7-----7--5-|
G|-------------------------------------------------|
C|-------------------------------------------------|
                                     .  .      

  GTR I
d|-------------------------------------------------|
A|-------------------------------------------------|
F|-------------------------------------------------|
C|-------------------------------------------------|
G|--0----------------------------------------------|
C|--0-------10~------------------------------------|
 |
 |GTR II
d|-------------------------------------------------|
A|-------------------------------------------------|
F|-------------------------------------------------|
C|-------------------------------------------------|
G|-12b-----r10-------------------------------------|
C|-12b-----r10-------------------------------------|
 |
 |GTR IV
d|-------------------------------------------------|
A|-------------------------------------------------|
F|--------------------------5--5--------------5~---|
C|-16~------14-----5--7--5--------7--5--7~---------|
G|-------------------------------------------------|
C|-------------------------------------------------|
                   .  .  .                     

  GTR I
d|-------------------------------------------------|
A|-------------------------------------------------|
F|-------------------------------------------------|
C|-------------------------------------------------|
G|--0-----------------0----------------------------|
C|--0-------10~-------0-------10~------------------|
 |
 |GTR II
d|-------------------------------------------------|
A|-------------------------------------------------|
F|-------------------------------------------------|
C|-------------------------------------------------|
G|-12b-----r10-------12b-----r10-------------------|
C|-12b-----r10-------12b-----r10-------------------|
 |
 |GTR IV
d|-------------------------------------------------|
A|-------------------------------------------------|
F|-----------------------------------------5-------|
C|-16~------14-------16~------14-----5--7-----7--5-|
G|-------------------------------------------------|
C|-------------------------------------------------|
                                     .  .      

  GTR I
d|-------------------------------------------------|
A|-------------------------------------------------|
F|-------------------------------------------------|
C|-------------------------------------------------|
G|--0----------------------------------------------|
C|--0-------10~------------------------------------|
 |
 |GTR II
d|-------------------------------------------------|
A|-------------------------------------------------|
F|-------------------------------------------------|
C|-------------------------------------------------|
G|-12b-----r10-------------------------------------|
C|-12b-----r10-------------------------------------|
 |
 |GTR IV
d|-------------------------------------------------|
A|-------------------------------------------------|
F|--------------------------5--5--------------5~---|
C|-16~------14-----5--7--5--------7--5--7~---------|
G|-------------------------------------------------|
C|-------------------------------------------------|
                   .  .  .                     

  GTR I
d|-------------------------------------------------|
A|-------------------------------------------------|
F|-------------------------------------------------|
C|-------------------------------------------------|
G|--0-----------------0----------------------------|
C|--0-------10~-------0-------10~------------------|
 |
 |GTR II
d|-------------------------------------------------|
A|-------------------------------------------------|
F|-------------------------------------------------|
C|-------------------------------------------------|
G|-12b-----r10-------12b-----r10-------------------|
C|-12b-----r10-------12b-----r10-------------------|
 |
 |GTR III
d|-------------------------------------------------|
A|-15----------------15----------------15----15----|
F|-17b---------------17b---------------17b---17b---|
C|-------------------------------------------------|
G|-------------------------------------------------|
C|-------------------------------------------------|
 |                                             
 |GTR IV
d|-------------------------------------------------|
A|-------------------------------------------------|
F|-19~------17-------19~------17-------21-19-17----|
C|-------------------------------------------------|
G|-------------------------------------------------|
C|-------------------------------------------------|

  GTR I
d|-------------------------------------------------|
A|-------------------------------------------------|
F|-------------------------------------------------|
C|-------------------------------------------------|
G|--0----------------------------------------------|
C|--0-------10~------------------------------------|
 |
 |GTR II
d|-------------------------------------------------|
A|-------------------------------------------------|
F|-------------------------------------------------|
C|-------------------------------------------------|
G|-12b-----r10-------------------------------------|
C|-12b-----r10-------------------------------------|
 |
 |GTR III
d|-------------------------------------------------|
A|-15----------------15----------------15----15----|
F|-17b---------------17b---------------17b---17b---|
C|-------------------------------------------------|
G|-------------------------------------------------|
C|-------------------------------------------------|
 |                                             
 |GTR IV
d|-------------------------------------------------|
A|-------------------------------------------------|
F|-19~------17----17-19-17-21-17-19-17-19~---------|
C|-------------------------------------------------|
G|-------------------------------------------------|
C|-------------------------------------------------|

  GTR I
d|-------------------------------------------------|
A|-------------------------------------------------|
F|-------------------------------------------------|
C|-------------------------------------------------|
G|--0-----------------0----------------------------|
C|--0-------10~-------0-------10~------------------|
 |
 |GTR II
d|-------------------------------------------------|
A|-------------------------------------------------|
F|-------------------------------------------------|
C|-------------------------------------------------|
G|-12b-----r10-------12b-----r10-------------------|
C|-12b-----r10-------12b-----r10-------------------|
 |
 |GTR III
d|-------------------------------------------------|
A|-15----------------15----------------15----15----|
F|-17b---------------17b---------------17b---17b---|
C|-------------------------------------------------|
G|-------------------------------------------------|
C|-------------------------------------------------|
 |                                             
 |GTR IV
d|----------------------17-------20-------22-------|
A|-17-17-------20----------------------------------|
F|-19b-----(19)-----(19)-----(19)-----(19)-----(19)|
C|-------------------------------------------------|
G|-------------------------------------------------|
C|-------------------------------------------------|

  GTR I
d|-------------------------------------------------|
A|-------------------------------------------------|
F|-------------------------------------------------|
C|-------------------------------------------------|
G|--0----------------------------------------------|
C|--0-------10~------------------------------------|
 |
 |GTR II
d|-------------------------------------------------|
A|-------------------------------------------------|
F|-------------------------------------------------|
C|-------------------------------------------------|
G|-12b-----r10-------------------------------------|
C|-12b-----r10-------------------------------------|
 |
 |GTR III
d|-------------------------------------------------|
A|-15----------------------------------------------|
F|-17b---------------------------------------------|
C|-------------------------------------------------|
G|-------------------------------------------------|
C|-------------------------------------------------|
 |                                             
 |GTR IV
d|-22~\--------------------------------------------|
A|-------------------------------------------------|
F|-------------------------------------------------|
C|-------------------------------------------------|
G|-------------------------------------------------|
C|-------------------------------------------------|

Bridge 2

  GTR II
d|-------------------------------------------------|
A|-------------------------------------------------|
F|-------------------------------------------------|
C|-------------------------------------------------|
G|--5--5--5--3--------5-----5--5--3----------------|
C|-------------------------------------------------|
 |  .  .  .  .        .     .  .  .
 |GTR III
d|-------------------------------------------------|
A|-------------------------------------------------|
F|-------------------------------------------------|
C|-------------------------------------------------|
G|-------------------------------------------------|
C|--------------------------------------5b---------|

  GTR II
d|-------------------------------------------------|
A|-------------------------------------------------|
F|-------------------------------------------------|
C|-------------------------------------------------|
G|--5--5--5--3-------------------------------------|
C|-----------------5--7--5/10-10--7--5--7\---------|
    .  .  .  .     .  .  .  .  .  .  .  .

  GTR II
d|-------------------------------------------------|
A|-------------------------------------------------|
F|-------------------------------------------------|
C|-------------------------------------------------|
G|--5--5--5--3--------5-----5--5--3----------------|
C|-------------------------------------------------|
 |  .  .  .  .        .     .  .  .
 |GTR III
d|-------------------------------------------------|
A|-------------------------------------------------|
F|-------------------------------------------------|
C|-------------------------------------------------|
G|-------------------------------------------------|
C|--------------------------------------5b---------|

  GTR II
d|-------------------------------------------------|
A|-------------------------------------------------|
F|-------------------------------------------------|
C|-------------------------------------------------|
G|--5--5--5--3-------------------------------------|
C|-----------------5--7--5/10-10--7--5--7\---------|
    .  .  .  .     .  .  .  .  .  .  .  .

Verse 2

  GTR II
d|-------------------------------------------------|
A|-------------------------------------------------|
F|-------------------------------------------------|
C|-------------------------------------------------|
G|--5--------3--------5--------3-------------------|
C|-------------------------------------------------|
    .        .        .        .

  GTR II
d|-------------------------------------------------|
A|-------------------------------------------------|
F|-------------------------------------------------|
C|-------------------------------------------------|
G|--5--------3-------------------------------------|
C|-------------------------------------------------|
    .        .                     

  GTR II
d|-------------------------------------------------|
A|-------------------------------------------------|
F|-------------------------------------------------|
C|-------------------------------------------------|
G|--5--------3--------5--------3-------------------|
C|-------------------------------------------------|
    .        .        .        .

  GTR I
d|-------------------------------------------------|
A|-------------------------------------------------|
F|-------------------------------------------------|
C|-------------------------------------------------|
G|------------------------------------Pickslide----|
C|------------------------------------Pickslide----|
 |
 |GTR II
d|-------------------------------------------------|
A|-------------------------------------------------|
F|-------------------------------------------------|
C|-------------------------------------------------|
G|--5--------3-------------------------------------|
C|-------------------------------------------------|
 |  .        .                    
 |GTR III
d|-------------------------------------------------|
A|--------------------3/---------------------------|
F|--------------------2/---------------------------|
C|--------------------0/---------------------------|
G|-------------------------------------------------|
C|-------------------------------------------------|

Chorus

  GTR I
d|-------------------------------------------------|
A|-------------------------------------------------|
F|-------------------------------------------------|
C|-------------------------------------------------|
G|--0-----------------0----------------------------|
C|--0-------10~-------0-------10~------------------|
 |
 |GTR II
d|-------------------------------------------------|
A|-------------------------------------------------|
F|-------------------------------------------------|
C|-------------------------------------------------|
G|-12b-----r10-------12b-----r10-------------------|
C|-12b-----r10-------12b-----r10-------------------|

  GTR I
d|-------------------------------------------------|
A|-------------------------------------------------|
F|-------------------------------------------------|
C|-------------------------------------------------|
G|--0----------------------------------------------|
C|--0-------10~------------------------------------|
 |
 |GTR II
d|-------------------------------------------------|
A|-------------------------------------------------|
F|-------------------------------------------------|
C|-------------------------------------------------|
G|-12b-----r10-------------------------------------|
C|-12b-----r10-------------------------------------|

  GTR I
d|-------------------------------------------------|
A|-------------------------------------------------|
F|-------------------------------------------------|
C|-------------------------------------------------|
G|--0-----------------0----------------------------|
C|--0-------10~-------0-------10~------------------|
 |
 |GTR II
d|-------------------------------------------------|
A|-------------------------------------------------|
F|-------------------------------------------------|
C|-------------------------------------------------|
G|-12b-----r10-------12b-----r10-------------------|
C|-12b-----r10-------12b-----r10-------------------|

  GTR I
d|-------------------------------------------------|
A|-------------------------------------------------|
F|-------------------------------------------------|
C|-------------------------------------------------|
G|--0--------------5--7--5/10-10--7--5--7\---------|
C|--0-------10~----5--7--5/10-10--7--5--7\---------|
 |
 |GTR II
d|-------------------------------------------------|
A|-------------------------------------------------|
F|-------------------------------------------------|
C|-------------------------------------------------|
G|-12b-----r10-----5--7--5/10-10--7--5--7\---------|
C|-12b-----r10-----5--7--5/10-10--7--5--7\---------|

  GTR I
d|-------------------------------------------------|
A|-------------------------------------------------|
F|-------------------------------------------------|
C|-------------------------------------------------|
G|--0-----------------0----------------------------|
C|--0-------10~-------0-------10~------------------|
 |
 |GTR II
d|-------------------------------------------------|
A|-------------------------------------------------|
F|-------------------------------------------------|
C|-------------------------------------------------|
G|-12b-----r10-------12b-----r10-------------------|
C|-12b-----r10-------12b-----r10-------------------|

  GTR I
d|-------------------------------------------------|
A|-------------------------------------------------|
F|-------------------------------------------------|
C|-------------------------------------------------|
G|--0----------------------------------------------|
C|--0-------10~------------------------------------|
 |
 |GTR II
d|-------------------------------------------------|
A|-------------------------------------------------|
F|-------------------------------------------------|
C|-------------------------------------------------|
G|-12b-----r10-------------------------------------|
C|-12b-----r10-------------------------------------|

  GTR I
d|-------------------------------------------------|
A|-------------------------------------------------|
F|-------------------------------------------------|
C|-------------------------------------------------|
G|--0-----------------0----------------------------|
C|--0-------10~-------0-------10~------------------|
 |
 |GTR II
d|-------------------------------------------------|
A|-------------------------------------------------|
F|-------------------------------------------------|
C|-------------------------------------------------|
G|-12b-----r10-------12b-----r10-------------------|
C|-12b-----r10-------12b-----r10-------------------|

  GTR I
d|-------------------------------------------------|
A|-------------------------------------------------|
F|-------------------------------------------------|
C|-------------------------------------------------|
G|--0--------------5--7--5/10-10--7--5--7\---------|
C|--0-------10~----5--7--5/10-10--7--5--7\---------|
 |
 |GTR II
d|-------------------------------------------------|
A|-------------------------------------------------|
F|-------------------------------------------------|
C|-------------------------------------------------|
G|-12b-----r10-----5--7--5/10-10--7--5--7\---------|
C|-12b-----r10-----5--7--5/10-10--7--5--7\---------|


| b  bend
| r  release bend
|PH. pinch harmonic
|fbk feedback
| .  palm-mute
| /  slide up
| \  slide down
| h  hammer-on
| p  pull-off
| ~  vibrato
| +  harmonic
| x  Mute note
===============================================================================
comments
We did not receive enough feedback on this tab! Please rate:
print report bad tab
1 2 3 4 5
I want to post or [tab]
guest
You may want to rate the tab now too:
select rating
Please do not post tabs as comments. Select "correction" instead!