Oops, an error
Loading. Please wait.

Long Road Tab

16,916 views 10 this week
4 commentsread comments
1 2 3 4 5
accurate
x 9
add to favorites launch autoscroll
font size
0
reset
Autoscroll
+/-
esc
set tempo
stop
Contributor
WARNING: You are trying to view
                                    content from Ultimate-Guitar.com
                                    in an unauthorized application,
                                    which is prohibited.

                                    Please use an official Ultimate
                                    Guitar Tabs application for iPhone,
                                    iPad or Android to access legitimate
                                    chords, guitar, bass, and drum tabs
                                    from Ultimate-Guitar.com database.

                                    Type "ultimate guitar tabs" in Apple
                                    App Store's or Android Market's
                                    search to find the application.
Band- Nickelback
Album- The Long Road

1.FLAT ON THE FLOOR

Drop D

Intro
|--------------------------------------------|
|--------------------------------------------|
|--------------------------------------------|x2
|-0000330355356535-0000330355-5--------------|
|-0000330355356535-0000330355-5--------------|
|-0000330355356535-0000330355-5--------------|

Verse
|--------------------------------------------|
|--------------------------------------------|
|--------------------------------------------|
|--000--0-00--000---5-3----------------------|x2
|--000--0-00--000---5-3----------------------|
|--000--0-00--000---5-3----------------------|

Chorus
|--------------------------------------------|
|--------------------------------------------|
|--------------------------------------------|
|-0000330355356535-0000330355-5--------------|x2
|-0000330355356535-0000330355-5--------------|
|-0000330355356535-0000330355-5--------------|

Bridge
|--------------------------------------------|
|--------------------------------------------|
|--------------------------------------------|
|---------------------3-5--------------------|
|-----333---333---333-3-5--------------------|
|--000---000---000----3-5--------------------|

2.DO THIS ANYMORE

intro- F G# D# A#

| e|----------------------------------------------|
| B|----------------------------------------------|
| G|---------------------8-8-8-8-8-3-3-3-3-3------|   4x
| D|-3-3-3-3-3-6-6-6-6-6-8-8-8-8-8-3-3-3-3-3------|
| A|-3-3-3-3-3-6-6-6-6-6-6-6-6-6-6-1-1-1-1-1------|
| E|-1-1-1-1-1-4-4-4-4-4--------------------------|


| E|----------------|
| B|----------------|
| G|-3-3-3-3--------|      3x
| D|-3-3-3-3--------|
| A|-1-1-1-1--------|
| E|----------------|
	Chorus
| E|-------------------------------------------------|
| B|-------------------------------------------------|
| G|-5-5-x-x--8-8-x-x--6-6-x-x-8-10-10-10-8-10-10-10-|
| D|-5-5-x-x--8-8-x-x--6-6-x-x-8-10-10-10-8-10-10-10-|
| A|-3-3-x-x--6-6-x-x--4-4-x-x-6-8--8--8--6-8--8--8--|
| E|-------------------------------------------------|


| E|----------------------------------------|
| B|----------------------------------------|
| G|-5-5-x-x--8-8-x-x--6-6-x-x--x-3-x-8-----|
| D|-5-5-x-x--8-8-x-x--6-6-x-x--x-3-x-8-----|
| A|-3-3-x-x--6-6-x-x--4-4-x-x--x-1-x-6-----|
| E|----------------------------------------|

3.SOMEDAY

Introduction ( clean acoustic )


          Chords used


          Bm              G               A            D
E|-----2----------|------3---------|------0---------|2------------||
B|----3-----------|-----0----------|-----2----------|3------------||
G|---4------------|----0-----------|----2-----------|2------------||
D|--4-------------|---0------------|---2------------|0------------||
A|-2--------------|--2-------------|--0-------------|0------------||
E|0---------------|-3--------------|-0--------------|0------------||


How the Hell'd We Wind Up like this
Why weren't we able, to see the signs that we missed
And try to turn the tables

** here on the a chord go fast and play this

E|----------------||
B|---3-2----------||
G|-------2--------||
D|----------------||
A|----------------||
D|----------------||


I wish you'd unclench your fists
And unpack your suitcase
Lately theres been too much of this
But don't think its too late

--------

Then The distortion guitar ( remember dropped D )



E|-x--------------|-x---------------|x-x----|---x------------||
B|-x--------------|-x---------------|x-x----|---x------------||
G|-x--------------|-x---------------|x-x----|---x------------||
D|-2--------------|-2---------------|2/7----|---7------------||
A|-2--------------|-2---------------|2/2----|---7------------||
D|-2--------------|-2---------------|2/7----|---7------------||
     Palm Muted 5x|3x times (No Palm|       |   4x times

Nothin's wrong, just as long as you know that someday i will


(Chorus)


E|-x-x-x-x-x-x-x-x|-x-x-x-x--------|----------------|----------------||
B|-x-x-x-x-x-x-x-x|-x-x-x-x--------|----------------|----------------||
G|-x-x-x-x-x-x-x-x|-x-x-x-x--------|----------------|----------------||
D|-5-0-7-2-2-2-2-2|-5-7-9-7--------|----------------|----------------||
A|-5-0-7-2-2-2-2-2|-5-7-9-7--------|----------------|----------------||
D|-5-0-7-2-2-2-2-2|-5-7-9-7--------|----------------|----------------||


|-x-x-x-x-x-x-x-x|-x-x-x---------|
|-x-x-x-x-x-x-x-x|-x-x-x---------|
|-x-x-x-x-x-x-x-x|-x-x-x---------|
|-5-0-7-2-2-2-2-2|-5-7-2---------|
|-5-0-7-2-2-2-2-2|-5-7-2---------|
|-5-0-7-2-2-2-2-2|-5-7-2---------|

    Someday, Somehow
I'm gonna make it alright but not right now
I know your wandering when
(Your the only one who knows that)

    Someday, Somehow
I'm gonna make it alright but not right now
I know your wandering when.

-----Again The acoustic guitar

          Bm              G               A            D
E|-----2----------|------3---------|------0---------|2------------||
B|----3-----------|-----0----------|-----2----------|3------------||
G|---4------------|----0-----------|----2-----------|2------------||
D|--4-------------|---0------------|---2------------|0------------||
A|-2--------------|--2-------------|--0-------------|0------------||
E|0---------------|-3--------------|-0--------------|0------------||

I'd hoped that since we're here anyways
We could end up saying
Things we've always needed to say
So we could end up staying


now here play the A chord and then

E|----------------||
B|---3-2----------||
G|-------2--------||
D|----------------||
A|----------------||
D|----------------||

Now the stories bleed out like this
Just like a paperback novel
Lets rewrite it, it even fits
Instead of hollywood horror
But don't think its too late


----

Pre Chorus



E|-x--------------|-x---------------|x-x----|---x------------||
B|-x--------------|-x---------------|x-x----|---x------------||
G|-x--------------|-x---------------|x-x----|---x------------||
D|-2--------------|-2---------------|2/7----|---7------------||
A|-2--------------|-2---------------|2/2----|---7------------||
D|-2--------------|-2---------------|2/7----|---7------------||
     Palm Muted 5x|3x times (No Palm|       |   4x times

Nothin's wrong, just as long as you know that someday i will

Repeat Chorus


(Chorus)


E|-x-x-x-x-x-x-x-x|-x-x-x-x--------|----------------|----------------||
B|-x-x-x-x-x-x-x-x|-x-x-x-x--------|----------------|----------------||
G|-x-x-x-x-x-x-x-x|-x-x-x-x--------|----------------|----------------||
D|-5-0-7-2-2-2-2-2|-5-7-9-7--------|----------------|----------------||
A|-5-0-7-2-2-2-2-2|-5-7-9-7--------|----------------|----------------||
D|-5-0-7-2-2-2-2-2|-5-7-9-7--------|----------------|----------------||


|-x-x-x-x-x-x-x-x|-x-x-----------|
|-x-x-x-x-x-x-x-x|-x-x-----------|
|-x-x-x-x-x-x-x-x|-x-x-----------|
|-5-0-7-2-2-2-2-2|-5-7-----------|
|-5-0-7-2-2-2-2-2|-5-7-----------|
|-5-0-7-2-2-2-2-2|-5-7-----------|


E|---x-x-x-x-x|----x-x-x-----------||
B|---x-x-x-x-x|----x-x-x-----------||
G|---x-x-x-x-x|----x-x-x-----------||
D|---9-9-9-9-9|----9-9-9-----------||
A|---9-9-9-9-9|----9-9-9-----------||
D|---9-9-9-9-9|----9-9-9-----------||
     Palm Mute|  W/O Palm mute


    Someday, Somehow
I'm gonna make it alright but not right now
I know your wandering when
(Your the only one who knows that)

    Someday, Somehow
I'm gonna make it alright but not right now
I know your wondering when Your the only one who knows that


Solo Part

Rythm guitar

E|-x-x-x-x-x-x-x-x|-x-x-x-x--------|
B|-x-x-x-x-x-x-x-x|-x-x-x-x--------|
G|-x-x-x-x-x-x-x-x|-x-x-x-x--------|
D|-5-0-7-2-2-2-2-2|-5-7-9-7--------|
A|-5-0-7-2-2-2-2-2|-5-7-9-7--------|
D|-5-0-7-2-2-2-2-2|-5-7-9-7--------|

E|-x-x-x-x-x-x-x-x|-x-x-x----------|
B|-x-x-x-x-x-x-x-x|-x-x-x----------|
G|-x-x-x-x-x-x-x-x|-x-x-x----------|
D|-5-0-7-2-2-2-2-2|-5-7-9----------|
A|-5-0-7-2-2-2-2-2|-5-7-9----------|
D|-5-0-7-2-2-2-2-2|-5-7-9----------|


Lead Guitar

E|---------------------------------------------------------------------||
B|---------------------------------------------------------------------||
G|---------------------------------------------------------------------||
D|--9/11-12-11-9-11--9/11-12-11-9-11---7-9-11-9-999-11-11-11-12-12-----||
A|-7----------------7-----------------5---7----------------------------||
D|---------------------------------------------------------------------||

E|---------------------------------------------------------------------||
B|---------------------------------------------------------------------||
G|-----------------------------------------------------------9/11-7-9--||
D|-7-7-7-11-11-11-12-12--------------9-9-9-11-11-11--12-11-7-----------||
A|---------------------------------------------------------------------||
D|---------------------------------------------------------------------||


G|-------------------------9/11-7-9--------||
D|-9-9-9-11-11-11--12-11-7-----------------||
A|-----------------------------------------||
D|-----------------------------------------||


E|-----------------------------------||
B|-----------------------------------||
G|---------------------------9-9/11--||
D|9-9-9-11-11-11-12-12-7-7-7--------9||
A|-----------------------------------||
D|-----------------------------------||


-----------------

Last part Clean acoustic

          Bm              G               A            D
E|-----2----------|------3---------|------0---------|2------------||
B|----3-----------|-----0----------|-----2----------|3------------||
G|---4------------|----0-----------|----2-----------|2------------||
D|--4-------------|---0------------|---2------------|0------------||
A|-2--------------|--2-------------|--0-------------|0------------||
E|0---------------|-3--------------|-0--------------|0------------||

How the Hell'd we wind up like this
Why weren't we able
To see the signs that we missed
And try to turn the tables

** here in the chord A play the same

E|----------------||
B|---3-2----------||
G|-------2--------||
D|----------------||
A|----------------||
D|----------------||

Now the stories bleed out like this
Just like a paperback novel
Lets rewrite it, it even fits
Instead of hollywood horror.


----pre chorus---------

E|-x--------------|-x---------------|x-x----|---x------------||
B|-x--------------|-x---------------|x-x----|---x------------||
G|-x--------------|-x---------------|x-x----|---x------------||
D|-2--------------|-2---------------|2/7----|---7------------||
A|-2--------------|-2---------------|2/2----|---7------------||
D|-2--------------|-2---------------|2/7----|---7------------||
     Palm Muted 5x|3x times (No Palm|       |   4x times

Nothin's wrong, just as long as you know that someday i will


(Chorus)

E|-x-x-x-x-x-x-x-x|-x-x-x-x--------|----------------|----------------||
B|-x-x-x-x-x-x-x-x|-x-x-x-x--------|----------------|----------------||
G|-x-x-x-x-x-x-x-x|-x-x-x-x--------|----------------|----------------||
D|-5-0-7-2-2-2-2-2|-5-7-9-7--------|----------------|----------------||
A|-5-0-7-2-2-2-2-2|-5-7-9-7--------|----------------|----------------||
D|-5-0-7-2-2-2-2-2|-5-7-9-7--------|----------------|----------------||

E|-x-x-x-x-x-x-x-x|-x-x-x-x-x-x-x-x-x-x-x-----------------|
B|-x-x-x-x-x-x-x-x|-x-x-x-x-x-x-x-x-x-x-x-----------------|
G|-x-x-x-x-x-x-x-x|-x-x-x-x-x-x-x-x-x-x-x-----------------|
D|-5-0-7-2-2-2-2-2|-5-7-9-7-5-7-9-7-5-7-2-----------------|
A|-5-0-7-2-2-2-2-2|-5-7-9-7-5-7-9-7-5-7-2-----------------|
D|-5-0-7-2-2-2-2-2|-5-7-9-7-5-7-9-7-5-7-2-----------------|

Someday, Somehow
I'm gonna make it alright but not right now
I know your wondering when
(Your the only one who knows that)

Someday, Somehow
I'm gonna make it alright but not right now
I know your wondering when
(Your the only one who knows that)

I know your wondering when
(Your the only one who knows that)

I know your wondering when


Outtro ( clean guitar )




E|-------2--------||
B|----2-0---------||
G|-2H4------------||
D|----------------||
A|----------------||
E|----------------|| 3X times
  H= Hammer ON

4.BELIEVE IT OR NOT

Tuning: Drop D (D,A,D,G,B,E)

Intro/main riff/verse
|-------------------------------------------------------------|
|-------------------------------------------------------------|
|----------10-10-10—-9-------10-----------------10-10-10—-9---|
|-----------x—-x—-x—-x--------x------------------x—-x-—x—-x---|
|-----------8—-8—-8—-7--------8------------------8—-8—-8-—7---|
|--0-0-0-0---------------0-0-----0-0-0---0-0-0-0--------------|
   x x x x               x x     x x x   x x x x

|------------------------------|
|------------------------------|
|------------------------------|
|-------------10------------7--|
|-----------8-------------5----|
|--8-8-8—-8--------5-5-5—------|
  x x x  x x      x x x  x

Pre-chorus
|---------------------------|--------------------------|
|---------------------------|--------------------------|
|---------------------------|--------------------------|
|-(8)------10------10---10—-|--(5)------7------7---7---|
|-(8)----8----8-------8-----|--(5)----5---5------5-----|
|-(8)--8---------8----------|--(5)—5---------5---------|

|---------------------------|---------------------------|
|---------------------------|---------------------------|
|---------------------------|---------------------------|
|-(8)------10------10---10--|--(10)-------12--------10--|
|-(8)----8----8-------8-----|--(10)-----10---10-----10--|
|-(8)—8----------8----------|--(10)—-10----------10-10--|

Chorus
|----------------------------------------------------------------|
|----------------------------------------------------------------|
|-----------14/--------------------------------------------------|
|--0-0—-0----x/--8-8---8-8-8---0-0—-0—-7/---10-10---10-10-10-10--|
|--0-0—-0---12/--8-8---8-8-8---0-0—-0—-5/---10-10---10-10-10-10--|
|--0-0—-0--------8-8---8-8-8---0-0—-0—-5/---10-10---10-10-10-10--|

|---------------------------|---------------------------|
|---------------------------|---------------------------|
|---------------------------|---------------------------|
|-(8)------10------10---10--|--(10)-------12--------10--|
|-(8)----8----8-------8-----|--(10)-----10---10-----10--|
|-(8)—8----------8----------|--(10)—-10----------10-10--|

Bridge
|----------------------------------------|
|----------------------------------------|
|----------------------------------------|
|---------10-8-7------------7-5-3—0h3-5--|
|----8-----------8-----5-----------------|
|--8---8-------------5---5---------------|

|------------------------------------------|
|--6/13—--10---8---6---6/13---10---8---6---|
|------------------------------------------|
|------------------------------------------|
|------------------------------------------|
|------------------------------------------|

|----------------------------------|--|
|--10-----10----10----10----10-----|--|
|-----10----10----10----10----10---|--|
|---8----8-----8----8-----8-----8--|--|
|----------------------------------|--|
|----------------------------------|--|

---------------------------------|----------------------------------|
--8------8-----8-----8-----8-----|--10-----10----10----10----10-----|
----10----10----10----10----10---|-----10----10----10----10----10---|
--7----7----7-----7-----7-----7--|---8----8-----8----8-----8-----8--|
---------------------------------|----------------------------------|
---------------------------------|----------------------------------|

----------------------------------------|
--13------13-----13-----13-----13-------|
-----12-----12-----12-----12-----12-----|
--10---10-----10-----10-----10-----10---|
----------------------------------------|
----------------------------------------|

Palm Muted chords
|----------------------------------------------|
|----------------------------------------------|
|----------------------------------------------|
|--8-8-8-8-8-8-8-8---10-10-10-10-10-10-10-10---|
|--8-8-8-8-8-8-8-8---10-10-10-10-10-10-10-10---|
|--8-8-8-8-8-8-8-8---10-10-10-10-10-10-10-10---|

Solo
|----------------------------------------------|
|----------------------------------------------|
|----------------------------------------------|
|-----7---3---5------2-2h3—---7-3-5----2-2h3---|
|-10-------------3-3-------10-------3-3--------|
|----------------------------------------------|

5.FEELIN WAY TOO DAMN GOOD

Gtr I (D A D G B E) - 'Electric Guitar (clean)'
Gtr II (D A D G B E) - 'Electric Guitar (clean)'


 Intro
  Q=80
 4/4
  Gtr I
  Q  Q   Q   Q     Q   Q   S  S  E  Q
|---------------|----------------------|
|---------------|----------------------|
|---------------|----------------------|
|-0--0---0---0--|--0---0---0--0--0--0--|
|-9--9---9---9--|-10--10--10-10-10-10--|
|-0--0--10--10--|--9---9---8--8--8--8--|
|
| Gtr II
|                  ~~~~~~~~~~~~~~~~~~~
| H      H         H       Q        Q
|---------------|----------8-------10--|
|---------------|--8-------------------|
|---------------|----------------------|
|---------------|----------------------|
|---------------|----------------------|
|---------------|----------------------|


 4/4
  Gtr I
  Q  Q   Q         Q           Q         Q         S  S  E    Q
|---------------------------|------------------------------------------|
|---------------------------|------------------------------------------|
|---------------------------|------------------------------------------|
|-0--0---0---------0--------|--0---------0---------0--0--0----0--------|
|-9--9---9---------9--------|-10--------10--------10-10-10---10--------|
|-0--0--10--------10--------|--9---------9---------8--8--8----8--------|
|
| Gtr II
|        <
| H      S S S  S  S S  S S    S  S S S  S S S  S  S  S  S S  S  S S S
|-------10-8---10--8---10-8-|----10-8---10-8---10--8----10-8----10-8---|
|------------8-------8------|--8------8------8--------8-------8------8-|
|---------------------------|------------------------------------------|
|---------------------------|------------------------------------------|
|---------------------------|------------------------------------------|
|---------------------------|------------------------------------------|


   4/4
    Q  Q   Q   Q     Q   Q   S  S  E  Q
||----------------|-----------------------||
||o---------------|----------------------o||
||----------------|-----------------------||
||--0--0---0---0--|--0---0---0--0--0--0---||
||o-9--9---9---9--|-10--10--10-10-10-10--o||
||--0--0--10--10--|--9---9---8--8--8--8---||


  Q  Q   H      H    H      H    H      W
|-------------|-----------|-----------|------|
|-------------|-----------|-----------|------|
|-8--8--10----|-5----5----|-3----5----|------|
|-8--8--10----|-5----5----|-3----5----|-0----|
|-8--8--10----|-5----5----|-3----5----|-9----|
|-8--8--10----|-5----5----|-3----5----|-0----|


 4/4
  Gtr I
  Q  Q   Q   Q     Q   Q   S  S  E  Q
|---------------|----------------------|
|---------------|----------------------|
|---------------|----------------------|
|-0--0---0---0--|--0---0---0--0--0--0--|
|-9--9---9---9--|-10--10--10-10-10-10--|
|-0--0--10--10--|--9---9---8--8--8--8--|
|
| Gtr II
|                  ~~~~~~~~~~~~~~~~~~~
| H      H         H       Q        Q
|---------------|----------8-------10--|
|---------------|----------------------|
|---------------|--7-------------------|
|---------------|----------------------|
|---------------|----------------------|
|---------------|----------------------|


 4/4
  Gtr I
  Q  Q   Q   Q     Q   Q   S  S  E  Q
|---------------|----------------------|
|---------------|----------------------|
|---------------|----------------------|
|-0--0---0---0--|--0---0---0--0--0--0--|
|-9--9---9---9--|-10--10--10-10-10-10--|
|-0--0--10--10--|--9---9---8--8--8--8--|
|
| Gtr II
|                  ~~~~~~~~~~
| H      H         H       Q        Q
|---------------|-10-------------------|
|---------------|----------8-----------|
|---------------|-------------------7--|
|---------------|----------------------|
|---------------|----------------------|
|---------------|----------------------|


   Q  Q   H      H    H      H    H      E E E E E E E E
|--------------|-----------|-----------|-----------------|
|--------------|-----------|-----------|-----------------|
|--8--8--10----|-5----5----|-3----5----|-----------------|
|--8--8--10----|-5----5----|-3----5----|-0-0-0-0-0-0-0-0-|
|--8--8--10----|-5----5----|-3----5----|-0-0-0-0-0-0-0-0-|
|--8--8--10----|-5----5----|-3----5----|-0-0-0-0-0-0-0-0-|
|
|  ~~
|  W             W           W           W
|-10-----------|-----------|-----------|-----------------|
|--------------|-----------|-----------|-----------------|
|--------------|-----------|-----------|-----------------|
|--------------|-----------|-----------|-----------------|
|--------------|-----------|-----------|-----------------|
|--------------|-----------|-----------|-----------------|


  E E E E E E E E   E E E Q  S S E E   E E E E E E E E    Q   E Q  E S S E
|-----------------|------------------|-----------------|-10---8-5--3-------|
|-----------------|------------------|-----------------|-10---8-5--3-------|
|-3-3-3-3-3-3-3-3-|-5-5-5-5--5-5-5-5-|-3-3-3-3-5-5-5-5-|-12--10-7--5-------|
|-3-3-3-3-3-3-3-3-|-5-5-5-5--5-5-5-5-|-3-3-3-3-5-5-5-5-|-12--10-7--5-------|
|-1-1-1-1-3-3-3-3-|-3-3-3-3--5-5-5-5-|-3-3-3-3-5-5-5-5-|-10---8-5--3-------|
|-0-0-0-0-3-3-3-3-|-0-0-0-0--5-5-5-5-|-3-3-3-3-5-5-5-5-|-------------5-3-0-|


  E E E E E E E E   E E E E S S S S S S S S   E E E E E E E E
|-----------------|-------------------------|-----------------|
|-----------------|-------------------------|-----------------|
|-3-3-3-3-3-3-3-3-|-5-5-5-5-x-x-x-x-x-x-x-x-|-3-3-3-3-5-5-5-5-|
|-3-3-3-3-3-3-3-3-|-5-5-5-5-x-x-x-x-x-x-x-x-|-3-3-3-3-5-5-5-5-|
|-1-1-1-1-3-3-3-3-|-3-3-3-3-x-x-x-x-x-x-x-x-|-3-3-3-3-5-5-5-5-|
|-0-0-0-0-3-3-3-3-|-0-0-0-0-x-x-x-x-x-x-x-x-|-3-3-3-3-5-5-5-5-|


   4/4
    Gtr I
    E E E E  E  E  E  E    E  E  E  E  E  E  E  E
||----------------------|--------------------------||
||o---------------------|-------------------------o||
||----------------------|--------------------------||
||--0-0-0-0--0--0--0--0-|--0--0--0--0--0--0--0--0--||
||o-9-9-9-9--9--9--9--9-|-10-10-10-10-10-10-10-10-o||
||--0-0-0-0-10-10-10-10-|--9--9--9--9--8--8--8--8--||


   4/4
    Q  Q   Q   Q     Q   Q   S  S  E  Q
||----------------|-----------------------||
||o---------------|----------------------o||
||----------------|-----------------------||
||--0--0---0---0--|--0---0---0--0--0--0---||
||o-9--9---9---9--|-10--10--10-10-10-10--o||
||--0--0--10--10--|--9---9---8--8--8--8---||


  Q  Q   H      H    H      H    H      E E E E E E E E
|-------------|-----------|-----------|-----------------|
|-------------|-----------|-----------|-----------------|
|-8--8--10----|-5----5----|-3----5----|-----------------|
|-8--8--10----|-5----5----|-3----5----|-0-0-0-0-0-0-0-0-|
|-8--8--10----|-5----5----|-3----5----|-0-0-0-0-0-0-0-0-|
|-8--8--10----|-5----5----|-3----5----|-0-0-0-0-0-0-0-0-|


  E E E E E E E E   E E E Q  S S E E   E E E E E E E E    Q   E Q  E S S E
|-----------------|------------------|-----------------|-10---8-5--3-------|
|-----------------|------------------|-----------------|-10---8-5--3-------|
|-3-3-3-3-3-3-3-3-|-5-5-5-5--5-5-5-5-|-3-3-3-3-5-5-5-5-|-12--10-7--5-------|
|-3-3-3-3-3-3-3-3-|-5-5-5-5--5-5-5-5-|-3-3-3-3-5-5-5-5-|-12--10-7--5-------|
|-1-1-1-1-3-3-3-3-|-3-3-3-3--5-5-5-5-|-3-3-3-3-5-5-5-5-|-10---8-5--3-------|
|-0-0-0-0-3-3-3-3-|-0-0-0-0--5-5-5-5-|-3-3-3-3-5-5-5-5-|-------------5-3-0-|


  E E E E E E E E   E E E E S S S S S S S S   E E E E E E E E
|-----------------|-------------------------|-----------------|
|-----------------|-------------------------|-----------------|
|-3-3-3-3-3-3-3-3-|-5-5-5-5-x-x-x-x-x-x-x-x-|-3-3-3-3-5-5-5-5-|
|-3-3-3-3-3-3-3-3-|-5-5-5-5-x-x-x-x-x-x-x-x-|-3-3-3-3-5-5-5-5-|
|-1-1-1-1-3-3-3-3-|-3-3-3-3-x-x-x-x-x-x-x-x-|-3-3-3-3-5-5-5-5-|
|-0-0-0-0-3-3-3-3-|-0-0-0-0-x-x-x-x-x-x-x-x-|-3-3-3-3-5-5-5-5-|


   4/4
    Gtr I
    E E E E  E  E  E  E    E  E  E  E  E  E  E  E  3x
||----------------------|--------------------------||
||o---------------------|-------------------------o||
||----------------------|--------------------------||
||--0-0-0-0--0--0--0--0-|--0--0--0--0--0--0--0--0--||
||o-9-9-9-9--9--9--9--9-|-10-10-10-10-10-10-10-10-o||
||--0-0-0-0-10-10-10-10-|--9--9--9--9--8--8--8--8--||


 4/4
  Gtr I
  E E E E  E  E  E  E    Q   Q   H     W
|---------------------|-------------|-------|
|---------------------|-------------|-------|
|---------------------|-------------|-------|
|-0-0-0-0--0--0--0--0-|--0---0---0--|-------|
|-9-9-9-9--9--9--9--9-|-10--10--10--|-------|
|-0-0-0-0-10-10-10-10-|--9---9---8--|-------|


 4/4
  Gtr I
  Q  Q   Q   Q     Q   Q   S  S  E  Q
|---------------|----------------------|
|---------------|----------------------|
|---------------|----------------------|
|-0--0---0---0--|--0---0---0--0--0--0--|
|-9--9---9---9--|-10--10--10-10-10-10--|
|-0--0--10--10--|--9---9---8--8--8--8--|


 4/4
  Gtr I
  Q  Q   Q     Q     Q     Q     S  S  E   Q
|-----------------|----------------------------|
|-----------------|----------------------------|
|-----------------|----------------------------|
|-0--0---0-----0--|--0-----0-----0--0--0---0---|
|-9--9---9-----9--|-10----10----10-10-10--10---|
|-0--0--10----10--|--9-----9-----8--8--8---8---|


 4/4
  Gtr I
  Q  Q   Q         Q           Q         Q         S  S  E    Q
|---------------------------|------------------------------------------|
|---------------------------|------------------------------------------|
|---------------------------|------------------------------------------|
|-0--0---0---------0--------|--0---------0---------0--0--0----0--------|
|-9--9---9---------9--------|-10--------10--------10-10-10---10--------|
|-0--0--10--------10--------|--9---------9---------8--8--8----8--------|
|
| Gtr II
|        <
| H      S S S  S  S S  S S    S  S S S  S S S  S  S  S  S S  S  S S S
|-------10-8---10--8---10-8-|----10-8---10-8---10--8----10-8----10-8---|
|------------8-------8------|--8------8------8--------8-------8------8-|
|---------------------------|------------------------------------------|
|---------------------------|------------------------------------------|
|---------------------------|------------------------------------------|
|---------------------------|------------------------------------------|


   4/4
    Q  Q   Q   Q     Q   Q   S  S  E  Q
||----------------|-----------------------||
||o---------------|----------------------o||
||----------------|-----------------------||
||--0--0---0---0--|--0---0---0--0--0--0---||
||o-9--9---9---9--|-10--10--10-10-10-10--o||
||--0--0--10--10--|--9---9---8--8--8--8---||


  Q  Q   H      H    H      H    H      E E E E E E E E
|-------------|-----------|-----------|-----------------|
|-------------|-----------|-----------|-----------------|
|-8--8--10----|-5----5----|-3----5----|-----------------|
|-8--8--10----|-5----5----|-3----5----|-0-0-0-0-0-0-0-0-|
|-8--8--10----|-5----5----|-3----5----|-0-0-0-0-0-0-0-0-|
|-8--8--10----|-5----5----|-3----5----|-0-0-0-0-0-0-0-0-|


  E E E E E E E E   E E E Q  S S E E   E E E E E E E E    Q   E Q  E S S E
|-----------------|------------------|-----------------|-10---8-5--3-------|
|-----------------|------------------|-----------------|-10---8-5--3-------|
|-3-3-3-3-3-3-3-3-|-5-5-5-5--5-5-5-5-|-3-3-3-3-5-5-5-5-|-12--10-7--5-------|
|-3-3-3-3-3-3-3-3-|-5-5-5-5--5-5-5-5-|-3-3-3-3-5-5-5-5-|-12--10-7--5-------|
|-1-1-1-1-3-3-3-3-|-3-3-3-3--5-5-5-5-|-3-3-3-3-5-5-5-5-|-10---8-5--3-------|
|-0-0-0-0-3-3-3-3-|-0-0-0-0--5-5-5-5-|-3-3-3-3-5-5-5-5-|-------------5-3-0-|


  E E E E E E E E   E E E E S S S S S S S S   E E E E E E E E
|-----------------|-------------------------|-----------------|
|-----------------|-------------------------|-----------------|
|-3-3-3-3-3-3-3-3-|-5-5-5-5-x-x-x-x-x-x-x-x-|-3-3-3-3-5-5-5-5-|
|-3-3-3-3-3-3-3-3-|-5-5-5-5-x-x-x-x-x-x-x-x-|-3-3-3-3-5-5-5-5-|
|-1-1-1-1-3-3-3-3-|-3-3-3-3-x-x-x-x-x-x-x-x-|-3-3-3-3-5-5-5-5-|
|-0-0-0-0-3-3-3-3-|-0-0-0-0-x-x-x-x-x-x-x-x-|-3-3-3-3-5-5-5-5-|


   4/4
    Gtr I
    E E E E  E  E  E  E    E  E  E  E  E  E  E  E  3x
||----------------------|--------------------------||
||o---------------------|-------------------------o||
||----------------------|--------------------------||
||--0-0-0-0--0--0--0--0-|--0--0--0--0--0--0--0--0--||
||o-9-9-9-9--9--9--9--9-|-10-10-10-10-10-10-10-10-o||
||--0-0-0-0-10-10-10-10-|--9--9--9--9--8--8--8--8--||


 4/4
  Gtr I
  E E E E  E  E  E  E    H     H
|---------------------|-------------*|
|---------------------|-------------*|
|---------------------|-------------*|
|-0-0-0-0--0--0--0--0-|--0-----0----*|
|-9-9-9-9--9--9--9--9-|-10----10----*|
|-0-0-0-0-10-10-10-10-|--9-----8----*|

6.BECAUSE OF YOU

Intro (chad plays this once then ryan kicks in)

D|-----------------------------------------------------------|
A|-----------------------------------------------------------|
F|-----------------------------------------------------------|
C|-2--0-0-0-2---2--0-0-0-2---0-0-0-0-0-2---------------------|
G|-2--0-0-0-2---2--0-0-0-2---0-0-0-0-0-2-------5---------3h5-|
C|-2--0-0-0-2---2--0-0-0-2---0-0-0-0-0-2--0-2-0-0-3-0-2-0----|

Intro 2 (main riff) (when ryan kicks in)

D|------------------------------------------------------|
A|------------------------------------------------------|
F|------------------------------------------------------|
C|-0-0-0-2--2--0-0-0-2--0-0-0-0-0-2---------------------|   } 2X
G|-0-0-0-2--2--0-0-0-2--0-0-0-0-0-2-------5---------3h5-|
C|-0-0-0-2--2--0-0-0-2--0-0-0-0-0-2--0-2-0-0-3-0-2-0----|


D|--------------------------------------------|
A|--------------------------------------------|
F|--------------------------------------------|
C|-0-0-0-2--2--0-0-0-2--0-0-0-0-0-2--------5b-|
G|-0-0-0-2--2--0-0-0-2--0-0-0-0-0-2--------5b-|
C|-0-0-0-2--2--0-0-0-2--0-0-0-0-0-2--0-0-2-5b-|

then back to main riff and play 2x again.

chorus
'hands on the mirror, cant get much clearer, cant make this all go away'

D|---------------------------------------------------|
A|---------------------------------------------------|
F|---------------------------------------------------|
C|-0-0-0-0-0--0-0-0-0-0-0--0-0-0-0-0-0-0-0-0-0-0-3-5-|
G|-0-0-0-0-0--0-0-0-0-0-0--0-0-0-0-0-0-0-0-0-0-0-3-5-|
C|-0-0-0-0-0--0-0-0-0-0-0--0-0-0-0-0-0-0-0-0-0-0-3-5-|

7.FIGURED YOU OUT

intro/verse
i like your pants...
           C5x4    Em5      F5X4   C5x2
e|-------|------------------------------------|
B|-------|------------------------------------|
G|-------|--55XX--------------------55XX--5---|
D|-10\0--|--55XX---11xx------33XX---55XX--5---|
A|-10\0--|--33XX---11xx------33XX---33XX--3---|
D|-10\0--|---------11xx------33XX-------------|


Pre Chorus
I love the places...
                 C5x2             Em5X2   F5X2  C5X1
e|---------|----------------------------------------|
B|---------|----------------------------------------|
G|-5/10\5--|------55 5555 5 5555-----------------5--|
D|-5/10\5--|------55 5555 5 5555---11------33----5--|
A|-3/8-\3--|------33 3333 3 3333---11------33----3--|
D|---------|-----------------------11------33-------|
Harmonics           ....   ....

NOTE: same as intro verse but with harmonics
of the chords as stated.. these harmonics also
occur for Em5 and F5 just not shown to save
time and space (rythym similar listen to song)


Chorus
Now i know who you are...
    C5x6   A#5x6   F5x6 Emx1  C5
e|-----------------------------------------|
B|-----------------------------------------|
G|---5 5-------3-------------5 5555 5 5555-|
D|---5 5-------3------3--1---5 5555 5 5555-|
A|---3 3-------1------3--1---3 3333 3 3333-|
D|--------------------3--1-----------------|
PM   .                 Harm  ....   ....
Note:strum for chorus is approximation
and depends on how you play it.

second chorus and final chorus:
This does the harmonic area an
extra 6 times on the second bar around


Interlude:

Still a working progress if anyone has
any idea mail me so i can work it out.
However i just play a progression like
the verse with the chords chad would play
with a few extra mutes to keep up with tempo.
this is:

    C5x4     A#5x4   F5x4 C5x2
e|--------------------------------------|
B|--------------------------------------|
G|---55XXXX---3XXXX-----------55XXXX-5--|
D|---55XXXX---3XXXX---3XXXX---55XXXX-5--|
A|---33XXXX---1XXXX---3XXXX---33XXXX-3--|
D|--------------------3XXXX-------------|


Verse #2 (after Interlude)
I like your pants....
    C5x3   Em5X3    F5X3
e|-----------------------------|
B|-----------------------------|
G|-55XX------------------------|
D|-55Xx---11xx------33XX-------|
A|-33Xx---11xx------33XX-------|
E|--------11xx------33XX-------|
PM ....   ....      ....
Note: this is the same as all the other
verses just everythig is palm muted.


End On
(MAKESHIFT LIKE INTERLUDE)
    C5x3
e|------------------------|
B|------------------------|
G|---55XXXX--55XX55XX-----|
D|---55XXXX--55XX55XX33\0-|
A|---33XXXX--33XX33XX33\0-|
D|-------------------33\0-|

8.SHOULDVE LISTENED

Chords: B x35553
        D x57775
        G 355433
        A 577655
        E 022100

Verse 1
                                 B
There's clothes all over the floor
                                  D
don't remember them being here before
                       G                         A
Smell of perfume isn't here, why's lipstick on the mirror
                        E
And still I don't understand

Verse 2
No pictures left in the hall
There's three new holes in my wall
Where the hell's my credit cards, why's my wallet in the yard
Still I don't understand

Chorus
Well now I guess I should've listened
When you said you'd had enough
A little trick I picked up from my father, in one ear and out the other
Why's love gotta be so tough?

Verse 3
Should see the look on my face
My shit's all over the place
Why's this happenin to me, why'd you take both sets of keys
And still I don't understand


ChorusX2


And now I guess I should've listened
(bridge)


Verse 4
There's clothes all over the floor
don't remember them being here before
There are no candles in here, lipstick's still on my mirror
And still I don't understand

ChorusX2

9.THROW YOURSELF AWAY

tuning:
CGCFAD

intro\verse\under solo
|------------------------------------------|
|------------------------------------------|
|------------------------------------------|
|------------------------------------------|
|--0~--0-0-0--0-0-0--0---0~---------5~-----|
|--0~--0-0-0--0-0-0--0---0~----------------|
|--0~--0-0-0--0-0-0--0---0~---0h3h5--------|
       |-----------------------------------|
	     P.M.

last time
|-----------------------------------------|
|-----------------------------------------|
|-----------------------------------------|
|-----------------------------------------|
|--0~--0-0-0--0-0-0--0---0~---3h5--3h5----|
|--0~--0-0-0--0-0-0--0---0~---3h5--3h5----|
|--0~--0-0-0--0-0-0--0---0~---3h5--3h5----|


chorus
|---------------------------------------------------------|
|---------------------------------------------------------|
|---------------------------------------------------------|
|--888----333h5--xx---3h5-55--xx----3h5-55-xx--3h5-3h5-5--|
|--888----333h5--xx---3h5-55--xx----3h5-55-xx--3h5-3h5-5--|
|--888----333h5--xx---3h5-55--xx----3h5-55-xx--3h5 3h5-5--|

|----------------------------------------------|
|----------------------------------------------|
|----------------------------5--555---7--------|
|-00--0--10--00---0--10--0---5--555---7--------|
|-00--0---8--00---0---8--0---3--333---5--------|
|-00--0------00---0------0---------------------|
     P.M.	 P.M.	        P.M.

10.ANOTHER HOLE IN THE HEAD

Intro
|--------------------------------------|
|--------------------------------------|
|-----2-----2----2-------2-----2----2--|
|--------------------------------------|
|-0-0---0-0---0------------------------|
|--------------------3-3---3-3---3-—---|


|--------------------------------------|----------|
|--------------------------------------|--3-3-----|
|----2-----2----2-------2-----2----2---|--2-2-----|
|--------------------------------------|--0-0—-5--|
|--------------------------------------|--0-0—-5--|
|-0-0---0-0---0------5-5---5-5---5-----|--0-0—-5--|


chorus
|------------------------------------------|----------------|---------|
|-----------------------------3-3-3--------|----------------|---------|
|--2-2-2----------------------2-2-2—-------|----------------|---------|
|--2-2-2—-5------3-3-3—-5-----0-0-0—-5--—--|-5-5-5—-5-5-----|-5-5-5-2-|
|--0-0-0—-3(3x)--3-3-3—-3(3x)--------3(3x)—|-5-5-5—-3-3(3x)-|-3-3-2-0-|
|----------------3-3-3---------------------|-5-5-5----------|---------|

|------------------|
|------------------|
|------------------|
|--2---3---0---5---|
|--0---3---0---5---|
|------3---0---5---|


|------------------------------------------|
|----------------------3-3-3-3-------------|
|----------------------2-2-2-2-------------|
|--2-2-2-2---3-3-3-3—--0-0-0-0---5-5-5-5---|
|--0-0-0-0---3-3-3-3-------------5-5-5-5---|
|------------3-3-3-3-------------5-5-5-5---|

Outro
|-----|
|--3--|
|--2--|
|--0--|
|--0--|
|--0--|

11.SEE YOU AT THE SHOW

Dsus2
Crowds that scream at superstars
G
Where bouncers show they're battle scars
Bb                     c             Dsus2
I've been the first to sign on every wall
Dsus2
Down the road and round the bend
G
We pray to god it never ends
Bb                          C           Dsus2
I've been, I've seen, we've screamed to everyone


Chourus:
                     Dsus2
We'll see you at the show
   Cmaj                       Gmaj
If you don't come we'll never know
  Bb   /  Cmaj       Dsus2
You stand off in the back
          Cmaj                        Gmaj
You still stand out while you wearing black
Bb  /  Cmaj   Dsus2
Jump onto the bus
    Cmaj                    Gmaj
And ride around with all of us
Bb    /  Cmaj       Dsus2
We'll go out on the town
    Cmaj                Gmaj                      Bb / Cmaj
And light it up till we burn it down, burn it down

(same as first)
After hours and alcohol
Every club, we've seen em all
As long as we don't need to stand in line
Party scenes and billboard dreams
The ladies love those limousines
You know they're gonna show up every time

Chorus

First Verse

Chorus

Dsus2               Cmaj
Light it up till we burn it down
Light it up till we burn it down
Light it up till we burn it down, burn it down

12.SATURDAY NIGHTS ALRIGHT

Intro
e|-----------------------------------------------|
B|-----------------------------------------------|
G|-----------------------------------------------|
D|--7-7-7--7-7-7--7-7-7---5-5-5--5-5-5-----------|
A|--7-7-7--7-7-7--7-7-7---5-5-5--5-5-5-----------|
D|--7-7-7--7-7-7--7-7-7---5-5-5--5-5-5-----------|

Verse x2
e|---------------------------------------------------|
B|---------------------------------------------------|
G|---------------------------------------------------|
D|-7-7-7-7-7-7-7-7--7/5-5--5-5-5-5-5-5-5-5-----------|
A|-7-7-7-7-7-7-7-7--7/5-5--5-5-5-5-5-5-5-5-----------|
D|-7-7-7-7-7-7-7-7--7/5-5--5-5-5-5-5-5-5-5-----------|
   x x x x x x x           x x x x x x x x
e|-------------------------------------------------|
B|-------------------------------------------------|
G|-------------------------------------------------|
D|-0-0-0-0-0-0-0-0--0-7-7--7-7-7-7-7-7-7-7---------|
A|-0-0-0-0-0-0-0-0--0-7-7--7-7-7-7-7-7-7-7---------|
D|-0-0-0-0-0-0-0-0--0-7-7--7-7-7-7-7-7-7-7---------|
   x x x x x x x x         x x x x x x x x

End of the verse on the second time/Pre chorus
e|-------------------------------------------------|
B|-------------------------------------------------|
G|-------------------------------------------------|
D|-7-7-7-7-7-7-7-7/--2-2-2-2-2-2-2-2\--------------|
A|-7-7-7-7-7-7-7-7/--2-2-2-2-2-2-2-2\--------------|
D|-7-7-7-7-7-7-7-7/--2-2-2-2-2-2-2-2\--------------|
Chorus x2
e|---------------------------------------------------|
B|---------------------------------------------------|
G|---------------------------------------------------|
D|-12-12-12-12-12-12-12-12--10-10-10-10-10-10-10-10--|
A|-12-12-12-12-12-12-12-12--10-10-10-10-10-10-10-10--|
D|-12-12-12-12-12-12-12-12--10-10-10-10-10-10-10-10--|


e|---------------------------------------------------|
B|---------------------------------------------------|
G|---------------------------------------------------|
D|-5-5-5-5-5-5-5-5--12-12-12-12-12-12-12-12----------|
A|-5-5-5-5-5-5-5-5--12-12-12-12-12-12-12-12----------|
D|-5-5-5-5-5-5-5-5--12-12-12-12-12-12-12-12----------|

End of chorus
e|-------------------------------------------------------|
B|-------------------------------------------------------|
G|-------------------------------------------------------|
D|-7----12-10-9---x-x-x-x--------------------------------|
A|-7----12-10-9---x-x-x-x--------------------------------|
D|-7----12-10-9---x-x-x-x--------------------------------|

13.YANKING OUT MY

main riff - guitar one
E|------------------------------------------------|
B|------------------------------------------------|
G|------------------------------------------------|
D|------------------------------------------------|
A|-5h7-7--5h7-7--5h7-7--5h7-7---------------------|
D|-5h7-7--5h7-7--5h7-7--5h7-7---------------------|

guitar 2
E|------------------------------------------------|
B|-5----------------------------------------------|
G|(7) bend full step------------------------------|
D|------------------------------------------------|
A|------------------------------------------------|
D|------------------------------------------------|

verse - (palm muted)
E|-------------------------------------------------|
B|-------------------------------------------------|
G|-------------------------------------------------|
D|-------------------5/7-7-------------5/7-7-------|
A|-5h7-7-5h7-7-2h3-3-3/5-5-5h7-7-5h7-7-3/5-5-3h5-5-|
D|-5h7-7-5h7-7-2h3-3-------5h7-7-5h7-7-------3h5-5-|

pre chorus - guitar one
E|-----------------------------------------------------|
B|-----------------------------------------------------|
G|-7-7-7-7-7-7-7-7-5-5-5-5-5---------------------------|
D|-7-7-7-7-7-7-7-7-5-5-5-5-5---------------------------|
A|-5-5-5-5-5-5-5-5-3-3-3-3-3-5-5h7-7-5h7-7-5h7-7-5h7-7-|
D|-0-0-0-0-0-0-0-0-----------5-5h7-7-5h7-7-5h7-7-5h7-7-|

guitar two
E|------------------------------------------------------|
B|--10--------------------------------------------------|
G|-(12)-bend full step----------------------------------|
D|------------------------------------------------------|
A|---------------------------5-5h7-7-5h7-7-5h7-7-5h7-7--|
D|---------------------------5-5h7-7-5h7-7-5h7-7-5h7-7--|

then...
E|------------------------------------------------|
B|------------------------------------------------|
G|------------------------------------------------|
D|------------------------------------------------|
A|57-7-57-----------------------------------------|
D|57-7-57-*7-7-7-7-7-7-7--------------------------|

*gradually bend the note out of tune

chorus
E|---------------------------------------------------------------|
B|---------------------------------------------------------------|
G|---------------------------------------------------------------|
D|-------------------9/10-10-9/10-10-----------------------------|
A|-10h12-12-10h12-12-7/8--8--7/8--8--8h10-10-8h10-10-3h5-5-3h5-5-|
D|-10h12-12-10h12-12-----------------8h10-10-8h10-10-3h5-5-3h5-5-|

then
E|----------------------------------------------|
B|----------------------------------------------|
G|-----------------5----------------------------|
D|-----------------5----------------------------|
A|-3-3-3-3-3-3-3-3-3----------------------------|
D|-3-3-3-3-3-3-3-3------------------------------|
PM***************
bridge
E|---------------------------------------------------------|
B|-----------------------------------3-3--3-3-3-6-6--8-8---|
G|-------------------10-10-12-12-----2-2--2-2-2-5-5--7-7---|
D|-------------------10-10-12-12-----0-0--0-0-0-3-3--5-5---|
A|-10h12-12-10h12-12-8--8--10-10-12/-0-0--0-0-0-3-3--5-5---|
D|-10h12-12-10h12-12-------------12/-0-0--0-0-0-3-3--5-5---|

14.LEARN THE HARD WAY

Riff
E-------------------------------------------------------------------------------|
B-------------------------------------------------------------------------------|
G-------------------------------------------------------------------------------|
D----------------------------------------5--3--5--7--5--3--0--7-----------------|
A---10----9---9----------------10-----12-5--3--5--7--5--3--0--5-----------------|
D---12----12-12---10--9--10----10--9--10-5--3--5--7--5--3--0--------------------|

Prechorus/Bridge

E-----------------------------------------------------------------|
B-----------------------------------------------------------------|
G-----------------------------------------------------------------|
D-0-3-4-5-0-3-5---------------------------------------------------|
A-0-3-4-5-0-3-5---------------------------------------------------|
D-0-3-4-5-0-3-5---------------------------------------------------|
comments
print report bad tab
4 comments total. Showing first comments.
0 reply
marianoarnaiz wrote on February 8 2005, 12:00 am

1.- all tabs are recopilated from other guys
2.- have all the mistakes of all those tabs
3.- the things that you corrected doest sound good at all

0 reply
CatchMeIfUCan wrote on May 17 2006, 09:03 am

Ur version of Someday solo sounds crap, did u actually play it after u wrote it down?

0 reply
big_d wrote on March 31 2007, 12:35 pm

i think most the songs sound ok and better than i found so i give a five!

I want to post or [tab]
guest
You may want to rate the tab now too:
select rating
Please do not post tabs as comments. Select "correction" instead!