Oops, an error
Loading. Please wait.

Silver Side Up Tab

ver1
ver1

Album

More versions @911Tabs.com
132,111 views 18 this week
4 commentsread comments
1 2 3 4 5
accurate
x 9
Autoscroll
+/-
esc
set tempo
stop
Hey! There's an official Ultimate Guitar app which is ideal
for learning songs when you're away from computer. Get the app
WARNING: You are trying to view
                                    content from Ultimate-Guitar.com
                                    in an unauthorized application,
                                    which is prohibited.

                                    Please use an official Ultimate
                                    Guitar Tabs application for iPhone,
                                    iPad or Android to access legitimate
                                    chords, guitar, bass, and drum tabs
                                    from Ultimate-Guitar.com database.

                                    Type "ultimate guitar tabs" in Apple
                                    App Store's or Android Market's
                                    search to find the application.
                                      **************************
			                      NickelBack
     				        "Silver Side Up" (2001)
				      **************************

The Best Album of the Best Band!!!!, With 10 songs, this album is multi Platinum
in all the world. NickelBack is the Best Fucker Band, Rock up your ass!

Tracklisting:
01. Never Again
02. How You Remind Me
03. Woke Up This Morning
04. Too Bad
05. Just For
06. Holliwood
07. Money Bought
08. Where do I hide?
09. Hangnail
10. Good Times Gone


Song   : 01. Never Again
Lyrics : Chad Kroeger
Music  : NickelBack
Tunning: Drop D (DADGBE)
Tabbed : Pastor_Metal
E-Mail : pastor_metal@hotmail.com

Intro:
E|------------------------------------------------------------------|
B|------------------------------------------------------------------|
G|7-7-7--10-10-10--7-7-7--5-5-5----7-7-7--10-10-10--7-7-7-----------|
D|7-7-7--10-10-10--7-7-7--5-5-5----7-7-7--10-10-10--7-7-7--3-3--5---|
A|5-5-5--8--8--8---5-5-5--3-3-3----5-5-5--8--8--8---5-5-5--3-3--5---|
D|---------------------------------------------------------3-3--5---|

Verses: "...Clenching his hands, She's Just a Woman... Never Again"
E|----------------------------------------------|
B|----------------------------------------------|
G|--------5-5-5-5-5-5-5-5-5---------------------|
D|--------5-5-5-5-5-5-5-5-5--5-5-5-5-5-5-5------|
A|--------3-3-3-3-3-3-3-3-3--5-5-5-5-5-5-5------|
D|---------------------------5-5-5-5-5-5-5------|

E|------------------------------------------------------------------|
B|------------------------------------------------------------------|
G|7-7-7--10-10-10--7-7-7--5-5-5----7-7-7--10-10-10--7-7-7-----------|
D|7-7-7--10-10-10--7-7-7--5-5-5----7-7-7--10-10-10--7-7-7--3-3--5---|
A|5-5-5--8--8--8---5-5-5--3-3-3----5-5-5--8--8--8---5-5-5--3-3--5---|
D|---------------------------------------------------------3-3--5---|

Chorus:                      X3
E|------------------------------||--------------------------------------|
B|------------------------------||--------------------------------------|
G|7-7-7--5-5-5------------------||---5-5-5-5-5-5-5-5-5------------------|
D|7-7-7--5-5-5--5-5-5--3-3-3----||---5-5-5-5-5-5-5-5-5--3-3-3-3-3-3-----|
A|5-5-5--3-3-3--5-5-5--3-3-3----||---3-3-3-3-3-3-3-3-3--3-3-3-3-3-3-----|
D|--------------5-5-5--3-3-3----||----------------------3-3-3-3-3-3-----|

"Interlude"
E|------------------------------------------|
B|------------------------------------------|
G|------------------------------------------|
D|------------------------------------------|
A|3-3--0--3-3--0--3-3--0--5-3-5-6-5-3-5-6---|
D|3-3--0--3-3--0--3-3--0--5-3-5-6-5-3-5-6---|

"Bridge": "Father's name you haven't earned yet..."
E|----------|
B|----------|
G|----------| X3
D|----------|
A|5-3-5-6---|
D|5-3-5-6---|

In This Part, Ryan Peak Play with a "Slide", and the Sound is very Rocker, I don't know
how play "the Slide"
E|------------------------------------------|
B|------------------------------------------|
G|------------------------------------------|
D|------------------------------------------|
A|3-3--0--3-3--0--3-3--0--5-3-5-6-5-3-5-6---|
D|3-3--0--3-3--0--3-3--0--5-3-5-6-5-3-5-6---|

Outro:
E|--------------------------------|
B|--------------------------------|
G|--------------------------------|
D|--------------------------------|
A|3-3--0--3-3--0--3-3--0--5-3-5-6-|
D|3-3--0--3-3--0--3-3--0--5-3-5-6-|


Song   : 02. How You Remind Me
Lyrics : Chad Kroeger
Music  : NickelBack
Tunning: Drop D (DADGBE)
Tabbed : Pastor_Metal
E-Mail : pastor_metal@hotmail.com

Verse: "Never Made it as a wise man..." X3
E|3-3-3-x-x-3-3-3-x-x-1-1-1-x-x-1-1-1-x-x----||----------------------------------|
B|3-3-3-x-x-3-3-3-x-x-1-1-1-x-x-1-1-1-x-x----||--------3----------6---------1~---|
G|5-5-5-x-x-5-5-5-x-x-3-3-3-x-x-3-3-3-x-x----||------5---5------8---8-----3------|
D|5-5-5-x-x-5-5-5-x-x-3-3-3-x-x-3-3-3-x-x----||----------------------------------|
A|3-3-3-x-x-3-3-3-x-x-1-1-1-x-x-1-1-1-x-x----||---3----------6----------1--------|
D|------x-x-3-3-3-x-x-------x-x-1-1-1-x-x----||----------------------------------|
                                                 "...This is how you remind me..."

E|3-3-3-x-x-3-3-3-x-x-1-1-1-x-x-1-1-1-x-x-3-3-3-x-x-3-3-3-x-x----------------------------|
B|3-3-3-x-x-3-3-3-x-x-1-1-1-x-x-1-1-1-x-x-3-3-3-x-x-3-3-3-x-x----------------------------|
G|5-5-5-x-x-5-5-5-x-x-3-3-3-x-x-3-3-3-x-x-5-5-5-x-x-5-5-5-x-x---------------3-3-3-3-3-3--|
D|5-5-5-x-x-5-5-5-x-x-3-3-3-x-x-3-3-3-x-x-5-5-5-x-x-5-5-5-x-x---1-1-1-1-1-1-3-3-3-3-3-3--|
A|3-3-3-x-x-3-3-3-x-x-1-1-1-x-x-1-1-1-x-x-3-3-3-x-x-3-3-3-x-x---1-1-1-1-1-1-1-1-1-1------|
D|------x-x-3-3-3-x-x-------x-x-1-1-1-x-x-------x-x-3-3-3-x-x---1-1-1-1-1-1--------------|
							      pm............

Chorus:
E|-------------------------------------|
B|-------------------------------------|
G|5-5-5-5-----------3-3-3-3------------|
D|5-5-5-5--1-1-1-1--3-3-3-3--3-3-3-3---|
A|3-3-3-3--1-1-1-1--1-1-1-1--3-3-3-3---|
D|---------1-1-1-1-----------3-3-3-3---|

"...Yeah...Yeah...Yeah...No..No..."
E|----------------------------|
B|----------------------------|
G|5-5-5-5--5-5-5-5--3-3-3-3---|
D|5-5-5-5--3-3-3-3--3-3-3-3---|
A|3-3-3-3--3-3-3-3--1-1-1-1---|
D|---------3-3-3-3------------|

This Song is really easy to play!!
Order:
Verse 1
Chorus
Verse 2
Chorus
Outro (Chords of Verses)
Verse 3
Chorus X2


Song   : Woke Up This Morning
Lyrics : Chad Kroeger
Music  : NickelBack
Tunning: Drop D (DADGBE)
Tabbed : Josh S.
E-Mail :

intro
---------------------------------|
---------------------------------|
---------------------------------|
-----12---12-----12---12----1010-|
--------9-----------9--------9-9-|
--0-0--------0-0---------0-0-----|

---------------------------------|
---------------------------------|
---------------------------------|
-----12---12-----12---12-----8-8-|
--------9-----------9------------|
--0-0--------0-0---------0-0-8-8-|

---------------------------------|
---------------------------------|
---------------------------------|
-----12---12-----12---12-----3-3-|
--------9-----------9------------|
--0-0--------0-0---------0-0-3-3-|

--------------------------------|
--------------------------------|
--------------------------------|
------5-------------------------|
------3------3------------------|
---0------0--3------------------|

Verse\Outro PM
--------------------------------|
--------------------------------|
--------------------------------|
-----12---12-----12---12----10--|
--------9-----------9--------9--|
--0-0--------0-0---------0-0----|

--------------------------------|
--------------------------------|
--------------------------------|
-----12---12-----12---12-----8--|
--------9-----------9-----------|
--0-0--------0-0---------0-0-8--|

--------------------------------|
--------------------------------|
--------------------------------|
-----12---12-----12---12-----3--|
--------9-----------9-----------|
--0-0--------0-0---------0-0-3--|

--------------------------------|
--------------------------------|
--------------------------------|
------5-------------------------|
------3------3------------------|
---0------0--3------------------|

--------------------------------|
--------------------------------|
--------------------------------|
-----12---12-----12---12----10--|
--------9-----------9--------9--|
--0-0--------0-0---------0-0----|

Pre-Chorus 1
-------------------------------------|
-------------------------------------|
-------------------------------------|
-----12---12-----10-\-12----12-\-14--| (2x)
--------9----------------------------|
--0-0--------8-8---------10----------|

-----------------------------------------|
-----------------------------------------|
-----------------------------------------|
-----12---12-------10-\-12------12-\-14--|
--------9--------------------------------|
--0-0--------10-10---------12-12---------|

Pre-Chorus 2 PM
--------------------------------------------------|
--------------------------------------------------|
-----3---3---3-------5---5---5---3-3-3-3--5-5-5-5-|
---3---3---3---3---5---5---5---5-3-3-3-3--5-5-5-5-|
-1---------------3---------------1-1-1-1--3-3-3-3-|
--------------------------------------------------|

Chorus
--------------------------------|
--------------------------------|
--------------------------------|
------------------8-8-8-\-3-3-3-| (2x)
-----7-8-9---9------------------|
---0-------0------8-8-8-\-3-3-3-|

--------------------------------------------------------|
--------------------------------------------------------|
--------------------------------------------------------|
------------------8-8-8-\-3-3-3-\-8-8-8-\-3-3-3-\-5-\-3-|
-----7-8-9---9------------------------------------------|
---0-------0------8-8-8-\-3-3-3-\-8-8-8-\-3-3-3-\-5-\-3-|

Interlude PM
----------------------------------|
----------------------------------|
----------------------------------|
----------------------------------|
-----7-8-9--8-5-3-----7-8-9-------|
---0----------------0-------6-5-3-|

----------------------------------|
----------------------------------|
----------------------------------|
----------------------------------|
----7-8-9--8-5-3-----7-8-9--------|
--0----------------0-------5b-5-3-|

----------------------------------|
----------------------------------|
----------------------------------|
----------------------------------|
-----7-8-9--7-3-5-----7-8-9-------|
---0----------------0-------7-3-5-|

----------------------------------|
----------------------------------|
----------------------------------|
----------------------------------|
-----7-8-9--7-3-5-----7-8-9-------|
---0----------------0-------7-3-5-|
Order:

Intro
Verse
Pre-Chorus 1
Pre-Chorus 2
Chorus
Verse
Pre-Chorus 1
Pre-Chorus 2
Chorus
Verse
Interlude
Pre-Chorus 2
Chorus
Outro


Song   : Too Bad
Lyrics : Chad Kroeger
Music  : NickelBack
Tunning: Drop C (CGCFAD)
Tabbed : Trevor Jones
E-Mail : timmy91199@yahoo.ca

Intro: Clean w/ Tremolo

Riff A
d-----------------------------------------------------------------|
a-----------------------------------------------------------------|
f-----------------------------------------------------------------|
c-7---7---7---7---7---7---7---7-----------------------------------|
g-----------------------------------------------------------------|
c---0---0---0---0---0---0---0---0---------------------------------|

Verses: Riff A1

d-----------------------------------------------------------------|
a-----------------------------------------------------------------|
f-----------------------------------------------------------------|
c-7---7---7---7---7---7---7---7---7---7---7---7---7---7---7---7---|
g-----------------------------------------------------------------|
c---0---0---0---0---3---3---3---3---5---5---5---5---5---5---5---5-|

Chorus: Fig 1.

d-----------------------------------------------------------------|
a-----------------------------------------------------------------|
f-----------------------------------------------------------------|
c-8-8-8-8-8-8-8-8-3-3-3-3-3-3-3-3---------------------------------|
g-8-8-8-8-8-8-8-8-3-3-3-3-3-3-3-3-3h5-5-3-3h5-5-3-3h5-5-3-3h5-5-5-|
c-8-8-8-8-8-8-8-8-3-3-3-3-3-3-3-3-3h5-5-3-3h5-5-3-3h5-5-3-3h5-5-5-|

Interlude:

d-----------------------------------------------------------------|
a----------------------------------------------------10rb---------|
f------------------------------------------12rb-------------------|
c-----------------------------------------------------------------|
g-----------------------------------------------------------------|
c-0---------------3---------------5-------------------------------|

Guitar Solo:

Gtr 1.

d-----------------------------------------------------------------|
a-----------------------------------------------------------------|
f-12b---rb10----10---------10--h12~~~~--------10------------------|
c------------------12\--------------------------------------------|
g-----------------------------------------------------------------|
c-----------------------------------------------------------------|

Gtr 2.

d-----------------------------------------------------------------|
a-----------------------------------------------------------------|
f-------------------------10/12---/10-----------------10-12~~~~~~-|
c---------12----12~~~~~~~---------------/12~~~~~~~~---------------|
g-----------------------------------------------------------------|
c-----------------------------------------------------------------|

Gtr 1.

d-----------------------------------------------------------------|
a-----------------------------------------------------------------|
f---------------------------12b---------12-10----10---------------|
c---------------------------------------------12----12\10-10-12---|
g-----------------------------------------------------------------|
c-----------------------------------------------------------------|

Gtr 2.

d-----------------------------------------------------------------|
a-----------------------------------------------------------------|
f-10h12---12--12b-12b--12rb-------rb12---12-----------------------|
c-------------------------------------------12-10--------------10-|
g-------------------------------------------------12----10--12----|
c-----------------------------------------------------------------|

Gtr 1.

d-----------------------------------------------------------------|
a----------------------------------10-13--------------------------|
f------10-12~~~p10---12-12b-----12-------12brp10------------------|
c-12--------------------------------------------------------------|
g-----------------------------------------------------------------|
c-----------------------------------------------------------------|

Gtr 2.

d-----------------------------------------------------------------|
a-----------------------------------------------------------------|
f-------10-12b--12-12-10-12b~~~~~~~-rb12-10-10-12b---12-10--------|
c-12-------------------------------------------------------12-12--|
g-----------------------------------------------------------------|
c-----------------------------------------------------------------|

Gtr 1.

d-----------------------------------------------------------------|
a-----------------------------------------------------------------|
f-----------------------------------------------------------------|
c----------------------------------12---------12\--/10-10---------|
g----------------------------------------------------------12-10--|
c-----------------------------------------------------------------|

Gtr 2.

d-----------------------------------------15----15b--15b--15brp13-|
a-----------------------------------------------------------------|
f---------10--12-10---10-12--12b---rb12---------------------------|
c---10-12---------------------------------------------------------|
g-----------------------------------------------------------------|
c-----------------------------------------------------------------|

Gtr 1.

d-----------------------------------------------------------------|
a-----------------------------------------------------------------|
f-----------------------------------------------------------------|
c------------------------10-12--12~~~~~~~~~~----------------------|
g-/8-----------8-----12-------------------------------------------|
c----------------------------------------------0------------------|

Gtr 2.

d--/10-----/8\------/8\-------------------------------------------|
a-------------------------/8--6/8------/6\------------------------|
f-----------------------------------------------------------------|
c-----------------------------------------------------------------|
g-----------------------------------------------------------------|
c-----------------------------------------------------------------|


Chorus: repeat

d-----------------------------------------------------------------|
a-----------------------------------------------------------------|
f-----------------------------------------------------------------|
c-8-8-8-8-8-8-8-8-3-3-3-3-3-3-3-3---------------------------------|
g-8-8-8-8-8-8-8-8-3-3-3-3-3-3-3-3-3h5-5-3-3h5-5-3-3h5-5-3-3h5-5-5-|
c-8-8-8-8-8-8-8-8-3-3-3-3-3-3-3-3-3h5-5-3-3h5-5-3-3h5-5-3-3h5-5-5-|

last bar all staccato

d-----------------------------------------------------------------|
a-----------------------------------------------------------------|
f-----------------------------------------------------------------|
c-5---5---5---5---5---5-------------------------------------------|
g-5---5---5---5---5---5-------------------------------------------|
c-5---5---5---5---5---5-------------------------------------------|

Outro: w/ solos

Gtr 1.

d-----------------------------------------------------------------|
a--------------10-------------------------------------------------|
f-----------------12-10h12~~~~~~--12b-12-10h12--p10---------------|
c-/12-----------------------------------------------12---12~~~~~--|
g-----------------------------------------------------------------|
c-----------------------------------------------------------------|

Gtr 2.

d-----------------------------------------------------------------|
a-----------------------------------------------------------------|
f-----------------------------------------------------------------|
c-8-------------------------3-------------------5-----------------|
g-8-------------------------3-------------------5-----------------|
c-8-------------------------3-------------------5-----------------|

Gtr 1.

d----------10----10----------10----10-----------10----------------|
a-13p10-13----10----13p10-------10----13p10---------13/15~~~~~~---|
f-------------------------13----------------13--------------------|
c-----------------------------------------------------------------|
g-----------------------------------------------------------------|
c-----------------------------------------------------------------|

Riff Variation:

d----------10----10----------10----10----------10-----------------|
a-13p10-------10----13p10-------10----13p10-------13b~~~~~--------|
f-------13----------------13----------------13--------------------|
c-----------------------------------------------------------------|
g-----------------------------------------------------------------|
c-----------------------------------------------------------------|

Gtr 1.

d-----------------------------------------------------------------|
a-----------------------------------------------------------------|
f--12b-12-10h12~~~~~~----12b--12----10h12~~~~-----10--------------|
c----------------------------------------------------12~~~~~~~~---|
g-----------------------------------------------------------------|
c-----------------------------------------------------------------|

that's it

this is the best nickelback song, and the best tab..lolz


Song   : Just For
Lyrics : Chad Kroeger
Music  : NickelBack
Tunning: Drop D (DADGBE)
Tabbed : MadMax1786
E-Mail : madmax1786@meng.com

This song rules, I couldn't find any decent version so I decided to
tab on my own...
This is my 2nd tab but It's damn good!

 Intro
|----------------------------------------------------|
|----------------------------------------------------|
|----------------------------------------------------|
|-xxxxxx-2/3333-xxxx-5/6-5/6--0h1111-xxxxxxxxxx------| (Repeat twice)
|-xxxxxx-2/3333-xxxx-5/6-5/6--0h1111-xxxxxxxxxx------|
|-xxxxxx-2/3333-xxxx-5/6-5/6--0h1111-xxxxxxxxxx------|


|----------------------------------------------------|
|----------------------------------------------------|
|----------------------------------------------------|
|-3v-----------1v-----------3^-----------1v----------| (Let ring)
|-3v-----------1v-----------3^-----------1v----------|
|-3v-----------1v-----------3^-----------1v----------|

 Main Verse
|---------------------------|
|---------------------------|
|-------------6--5v---------|
|--5h6--6--5----------------|
|-------------------5-6v--\-|  (Let ring for a while then slide)
|---------------------------|


 Verse End 1
|--------------------------------------|
|--------------------------------------|
|-------------6--5---------------------|
|--5h6--6--5v-------------8---8--------|
|------------------6--6-6---6---6------|
|--------------------------------------|
                 PM. |-----------------|
 Verse End 2
|------------------------------------------------|
|------------------------------------------------|
|------------------------------------------------|
|-----5-5-5h6---5v---5-5-5h6p5--------8---8------|
|------------------------------6--6-6---6---6----|
|------------------------------------------------|
 PM. |---|      PM. |---|    PM. |---------------|

 Verse End 3
|-----------------------------------|
|-------------------8-8-8-9---------|
|-------------6--5-----------5v-----|
|--5h6--6--5------------------------|
|-----------------------------------|
|-----------------------------------|

 Verse End 4
|-------------------------|
|-------------------------|
|-------------------------|
|-------------------------|
|-------6v------\---------|  (Let ring then slide)
|-------------------------|

 Play verse then do each different end so it should look like this:
	Verse
	Verse End 1
	Verse
	Verse End 2
	Verse
	Verse End 3
	Verse
	Verse End 4

 After you've done all the verse parts play this then start chorus.
|--------------------------------------|
|--------------------------------------|
|--------------------------------------|
|--0--0-0-0-----0-0--0-0---xxxxx-------|
|--0--0-0-0-----0-0--0-0---xxxxx-------|
|--0--0-0-0-----0-0--0-0---xxxxx-------|
 PM. |-----|    PM. |------------------|

 Chorus
|--------------------------------------------------------------|
|--------------------------------------------------------------|
|--------------------------------------------------------------|
|--3--6--1----1-xxxxxxxx-2/3333-xxxx-5/6-5/6-0h1111-xxxxxxxxxx-|
|--3--6--1--1-1-xxxxxxxx-2/3333-xxxx-5/6-5/6-0h1111-xxxxxxxxxx-|
|--3--6--1--1-1-xxxxxxxx-2/3333-xxxx-5/6-5/6-0h1111-xxxxxxxxxx-|

|--------------------------------------------------------------|
|--------------------------------------------------------------|
|--------------------------------------------------------------|
|--3-6-1------1-xxxxxxxx-3-6-1------1-xxxxxxxx-----------------|
|--3-6-1----1-1-xxxxxxxx-3-6-1----1-1-xxxxxxxx-----------------|
|--3-6-1----1-1-xxxxxxxx-3-6-1----1-1-xxxxxxxx-----------------|

 Different Verse Before Interlude
|---------------------------------|
|---------------------------------|
|-------------6-5v----------------|
|--5h6--6-5v--------------8-------|
|-------------------6-6-6---6-----|
|---------------------------------|
	       PM. |-----|
|---------------------------------|
|---------------------------------|
|----------------6-5v----\--------| (Let ring then slide)
|-----5h6--6-5v-------------------|
|--6------------------------------|
|---------------------------------|

|---------------------------------|
|---------------------------------|
|-------------6-5v----------------|
|--5h6--6-5v--------------8---8---|
|-------------------6-6-6---6---6-|
|---------------------------------|
		   PM. |-----|

|---------------------------------|
|---------------------------------|
|--------------6-5v----\----------| (Let ring then slide)
|--5h6--6-5v----------------------|
|---------------------------------|
|---------------------------------|

 Interlude
|----------------------------------------|
|----------------------------------------|
|----------------------------------------|
|--2/3333-xxxx-5/6-5/6--0h111/8888/999---| (Repeat twice)
|--2/3333-xxxx-5/6-5/6--0h111/8888/999---|
|--2/3333-xxxx-5/6-5/6--0h111/8888/999---|

|----------------------------------------|
|----------------------------------------|
|----------------------------------------|
|--3--1--6--1--8*------------------------| (Repeat 4 times)
|--3--1--6--1--8*------------------------|
|--3--1--6--1--8*------------------------|
* - Strike Harder with pick giving it an accented tone.

 Outro - End the song with this
  |------|
  |------|
  |------|
  |--1v--|  (Let ring)
  |--1v--|
  |--1v--|

Song   : Hollywood
Lyrics : Chad Kroeger
Music  : NickelBack
Tunning: Drop D (DADGBE)
Tabbed : Pez 555
E-Mail : pez555@hotmail.com

Intro

E|-----------------------------------------------|
B|-----------------------------------------------|
G|-----------------------------------------------|
D|-----------------------------------------------|
A|-----------------------------------------------|
D|-10b-8--10b-8-XX-10b-8--3-5h-3-8h-8-5-3-5------|

Main Riff (basically until Solo)

E|---------------------------------------------|
B|---------------------------------------------|
G|---------------------------------------------|
D|-10-8--10-8----10-8--3-5h-3-8h-8-5-3-5-------|
A|-10-8--10-8----10-8--3-5h-3-8h-8-5-3-5-------|
D|-10-8--10-8----10-8--3-5h-3-8h-8-5-3-5-------|

Solo

E|------------------------------------------------------------------|
B|-5-3--5-3----------5-3---------------------5-3--5-3----------5-3--|
G|----------3-5h-3-0----------------------------------3-5h-3-0------|
D|-----------------------3-5h-3-8h-8-5-3-5-8------------------------|
A|------------------------------------------------------------------|
D|------------------------------------------------------------------|

E|---------------------8-6-8-6--10-8-6--8-6-6-8-6-10-8-6-8/--6-8-8-10-14-16-18-|
B|-----------------------------------------------------------------------------|
G|-----------------------------------------------------------------------------|
D|-3-5H-3-8H-8-5-3-5-8---------------------------------------------------------|
A|-----------------------------------------------------------------------------|
D|-----------------------------------------------------------------------------|

Then go back to playing main riff basically until end of song.

Song   : Hangnail
Lyrics : Chad Kroeger
Music  : NickelBack
Tunning: Drop D (DADGBE)
Tabbed : Pastor_Metal
E-Mail : pastor_metal@hotmail.com

Intro:
E|------------------------------------------------------------------||
B|------------------------------------------------------------------||
G|------------------------------------------------------------------||
D|--------------------------------------------------------------9---||
A|--------------------------------------------------------------9---||
D|-/99--6h7-6h76h76h7-11-99--6h7-6h76h76h7-14-1212--6h7-6h76h76h9---||

E|------------|
B|------------|
G|-9-7-7-6-7--|
D|-9-7-7-6-7--|
A|-7-5-7-6-7--|
D|------------|

Verses:
E|-----------------|
B|-----------------|
G|-----------------|
D|--4-4-5-6-11-99--|
A|-4-4-5-6--11-99--|
D|----------11-99--|

Chorus:
E|------------------------------|
B|------------------------------|
G|-4-4-4--7-7-7--2-2-2-22-2-2---|
D|-4-4-4--7-7-7--2-2-2-22-2-2---|
A|-2-2-2--7-7-7--2-2-2-22-2-2---|
D|------------------------------|

Solo:
E|------------------|
B|-4/5\4------------|
G|------------------|
D|-------7-5555-3---|
A|-------5-3333-1---|
D|------------------|

Song   : Where Do I Hide?
Lyrics : Chad Kroeger
Music  : NickelBack
Tunning: Standart (EADGBE)
Tabbed : Dean Parke
E-Mail :

Leyend:
  b   - bend
  /   - slide up
  \   - slide down
  PM  - Palm Mute
  (#) - optional note

Intro
e|--------------------------------------------|-------------------------------|
B|--------------------------------------------|-------------------------------|
G|--------------------------------------------|-------------------------------|
D|--------------------------------------------|----------------------77-77--7-|
A|-------------5--5--5-xx--/7--5-7b-7--5------|-----------5--5--5----77-77--7-|
E|---/7--7-5-7----------------------------7-7-|-/7--7-5-7---------xx-55-55--5-|

Chorus x2 (no vocals)
e|---------------------------------------------------------------------------|
B|---------------------------------------------------------------------------|
G|---4--4-4---2--2--2-xx---9--7/11-9--7---4----------------------------------|
D|---4--4-4---2--2--2-xx---9--7/11-9--7---4----------------------------------|
A|---2--2-2---0--0--0-xx---7--5/9--7--5---2----------------------------------|
E|---------------------------------------------------------------------------|

If you dont think the Verse sounds right.... Do it yourself

Verse (over & over)
e|-------------------|
B|-------------------|
G|-------------------|
D|---4-----------(4)-|
A|---2-0-2-5-2-0-2---|
E|-------------------|

Verse Fills (figure out where they go your self)
e|----------|-----|-----------------|------------|-----------|
B|----------|-----|-----------------|------------|-----------|
G|--4-4--4--|--7--|-----------------|--4-4--4-4--|--7\2--7---|
D|--4-4--4--|--7--|--4-4-4-4-4-4-4--|--4-4--4-4--|--7\2--7---|
A|--2-2--2--|--5--|--2-2-2-2-2-2-2--|--2-2--2-2--|--5\0--5---|
E|----------|-----|-----------------|------------|-----------|
                   PM |--------------------------------------|

Chorus x2

Verse (over & over)

Chorus x4

Bridge x2
e|------------------------------------|
B|------------------------------------|
G|------------------------------------|
D|------------------------------4-----|
A|---2-5---2-5---2-5---2-5---0--2-----|
E|------------------------------------|
 PM |---------------------------------|

Intro x1

Solo
e|---------------------------------------------------------------------------|
B|---------------------------------------------------------------------------|
G|-----------7--9---7-9b--9-7-9-7---7--------------------------------7-------|
D|----/7--9----------------------------9---7---------------------7-9---9-9---|
A|-------------------------------------------9-8-7---------7-8-9-------------|
E|-------------------------------------------------10-7-10-------------------|

e|---------------------------------------------------10----10----------------|
B|----------------------10------10----10----10-10/12----12----12-------------|
G|---7--------7-----/11-----/11----11----11----------------------------------|
D|-----9-7-9-----------------------------------------------------------------|
A|---------------------------------------------------------------------------|
E|---------------------------------------------------------------------------|

e|---10-12-12-10-12--12/14-10------------------------------------------------|
B|------------------------------7h10p7---7-----------------------------------|
G|-------------------------------------9---9-7-----9-7-----9-7---9-7---------|
D|---------------------------------------------9-7-----9-x-----9-----9-------|
A|---------------------------------------------------------------------------|
E|---------------------------------------------------------------------------|

e|---------------------------------------------------------------------------|
B|------------------------9\-------------------------------------------------|
G|---9--7-----------------9\-------------------------------------------------|
D|--------9-7----------------------------------------------------------------|
A|------------9-8-7----------------------------------------------------------|
E|------------------10-7-----------------------------------------------------|

Now if you wanna play your own solo just play around with the notes in this scale

Solo Scale
e|---7-------------10--12----------------------------------------------------|
B|---7-------------10--12----------------------------------------------------|
G|---7-------9--10---11------------------------------------------------------|
D|---7-------9---------------------------------------------------------------|
A|---7---8---9---------------------------------------------------------------|
E|---7----------10-----------------------------------------------------------|

Other notes can be added   eg.14 can be played on the e strings

Verse (no guitar till "lookin for a scapegoat")

Chorus x4

Outro (only difference is 5 instead of 2
e|---------------------------------------------------------------------------|
B|---------------------------------------------------------------------------|
G|---7--7-7---2--2--2-xx---9--7/11--9--7-4-4---------------------------------|
D|---7--7-7---2--2--2-xx---9--7/11--9--7-4-4---------------------------------|
A|---5--5-5---0--0--0-xx---7--5/9---7--5-2-2---------------------------------|
E|---------------------------------------------------------------------------|

So there it is, if you find a few mistakes its cuz i made a typeo so enjoy

Song   : Good Times Gone
Lyrics : Chad Kroeger
Music  : NickelBack
Tunning: Standart (EADGBE)
Tabbed : George Kamps
E-Mail : gskamps@interchange.ubc.ca

Email me if you can add to/correct this please. It would be much appreciated.
This is just most of the basic riffs/chords.

Intro chords:

Play around with G and C power chords so that it sounds good. Slide up from the C power
chord at the end which leads into this neat riff:

Intro riff:
E--------------------------------------=|
B--------------------------------------=|
G-----0-------0-------0-------0--------=|
D-------0-------0-------0-------0------=|
A-------------------1-----1-3-----3----=|
E---3-----3-1-----1-----------------3--=|

This riff just keeps repeating itself

Then the chorus comes in at about 1:25 or so:

E-----------------|
B-----------------|
G-----------------|
D----8---10---5---|
A----8---10---5---|
E----6----8---3---|

Where the good times gone?
Where the good times gone?

Play that part twice.

E-------------|
B-------------|
G-------------|
D----8---10---|
A----8---10---|
E----6----8---|

All that stupid fun
All that shit we done

Play this part twice

E-----------------|
B-----------------|
G-----------------|
D----8---10---5---|
A----8---10---5---|
E----6----8---3---|

Where the good times gone?
Well I still don't know.

Play this only once this time

This brings us to about 1:52 or so. The chords in the next section are a
simple pattern of G, F, Bb, and C. I like to play them all as power chords
and slide from one to another, but that's my preference.

The next section begins at about 2:04.

This is just the opening riff played over the G, F, Bb, C progression.

The next section begins at about 2:29

E-----------------------------------------------------------------------|
B-----------------------------------------------------------------------|
G------3--------------------------------------3--3---5------------------|
D------3--------------------------------------3--3---5------------------|
A------1--------------------------------------1--1---3------------------|
E----------------------------------------------------3------------------|

You can bribe the devil, you can pray to God. You can sell off every..
The rest of the song is just repeating what's already tabbed out for you.
Enjoy.

Downloaded from www.taborama.com


This is The Best album of NickelBack... "Silver Side Up"... For the Fans "SSU"...
This the Maximun album of the MotherFuckers of the Rock!!!
Hard Rock up your ASS!!!!!

Comments...Opinions...Questions???
pastor_metal@hotmail.com
comments
print report bad tab
4 comments total. Showing first comments.
0 reply
marianoarnaiz wrote on February 3 2005, 12:00 am

is not that bad but there are several seriuos mistakes in some of the songs

0 reply
Slash Jr. wrote on November 5 2005, 02:10 pm

agreed, but great job

0 reply
irish_rocker wrote on December 6 2005, 04:58 pm

good over all tabs, how ever on Never Again u got some things wrong

Intro/Verse should be as follows

G|7-7-7--10-10-10--5-5-5-----------7-7-7--10-10-10--5-5-5-----------|
D|7-7-7--10-10-10--5-5-5--3-3-5----7-7-7--10-10-10--5-5-5--5-5--3---|
A|5-5-5--8--8--8---3-3-3--3-3-5----5-5-5--8--8--8---3-3-3--5-5--3---|
D|------------------------3-3-5----------------------------5-5--3---|

and the bridge should be as follows
D|-5-3-5-0-
A|-5-3-5-0-
D|-5-3-5-0-

I want to post or [tab]
guest
You may want to rate the tab now too:
select rating
Please do not post tabs as comments. Select "correction" instead!