Oops, an error
Loading. Please wait.

Silver Side Up Tab

ver2
ver2

Album

More versions @911Tabs.com
2,030 views 3 this week
no commentswrite comment
1 2 3 4 5
accurate
x 2
add to favorites launch autoscroll
font size
0
reset
Autoscroll
+/-
esc
set tempo
stop
Contributor
Difficulty
intermediate
WARNING: You are trying to view
                                    content from Ultimate-Guitar.com
                                    in an unauthorized application,
                                    which is prohibited.

                                    Please use an official Ultimate
                                    Guitar Tabs application for iPhone,
                                    iPad or Android to access legitimate
                                    chords, guitar, bass, and drum tabs
                                    from Ultimate-Guitar.com database.

                                    Type "ultimate guitar tabs" in Apple
                                    App Store's or Android Market's
                                    search to find the application.
Silver Side Up (2001)
Nickelback

1.  Never Again             - Drop D Tuning (e,B,G,D,A,D)
2.  How You Remind Me       - Drop D Tuning (e,B,G,D,A,D)
3.  Woke Up This Morning    - Drop C Tuning (d,A,F,C,G,C)
4.  Too Bad                 - Drop C Tuning (d,A,F,C,G,C)
5.  Just For                - Drop D Tuning (e,B,G,D,A,D)
6.  Hollywood               - Drop C Tuning (d,A,F,C,G,C)
7.  Money Bought            - Drop C Tuning (d,A,F,C,G,C)
8.  Where Do I Hide         - Standard Drop B Tuning (e,B,G,D,A,B)
9.  Hangnail                - Standard Drop B Tuning (e,B,G,D,A,B)
10. Good Times Gone         - Standard Tuning (e,B,G,D,A,E)

All lyrics and music are written and composed by Chad Kroeger and Nickelback

------------------------------------------------------------------------------
1. Never Again
------------------------------------------------------------------------------

NOTE: The verses have some feedback and some notes, just improv them.

GRT I - Drop D Tuning "Chad Kroeger" (e,B,G,D,A,D)
GTR II - Drop D Tuning "Ryan Peake" (e,B,G,D,A,D)

Intro

  GTR I,II
e|-------------|-------------|-------------|-------------|-------------|
B|-------------|-------------|-------------|-------------|-------------|
G|-------------|-------------|-------------|-------------|-------------|
D|----DRUMS----|----BASS-----|----BASS-----|-------------|-------------|
A|-------------|-------------|-------------|-feedback----|--pickscrape-|
D|-------------|-------------|-------------|-feedback----|--pickscrape-|

Main Riff

  GTR I
e|-------------------------------------------------|
B|-------------------------------------------------|
G|--7--7--7----10-10-10-----5--5--5----------------|
D|--x--x--x-----x--x--x-----x--x--x-----3--3--5----|
A|--5--5--5-----8--8--8-----3--3--3-----3--3--5----|
D|--------------------------------------3--3--5----|
 |
 |GTR II
e|-------------------------------------------------|
B|-------------------------------------------------|
G|-------------------------------------------------|
D|--0--0--0-----0--0--0-----0--0--0-----3--3--5----|
A|--0--0--0-----0--0--0-----0--0--0-----3--3--5----|
D|--0--0--0-----0--0--0-----0--0--0-----3--3--5----|

  GTR I
e|-------------------------------------------------|
B|-------------------------------------------------|
G|--7--7--7----10-10-10-----5--5--5----------------|
D|--x--x--x-----x--x--x-----x--x--x-----5--5--3----|
A|--5--5--5-----8--8--8-----3--3--3-----5--5--3----|
D|--------------------------------------5--5--3----|
 |
 |GTR II
e|-------------------------------------------------|
B|-------------------------------------------------|
G|-------------------------------------------------|
D|--0--0--0-----0--0--0-----0--0--0-----5--5--3----|
A|--0--0--0-----0--0--0-----0--0--0-----5--5--3----|
D|--0--0--0-----0--0--0-----0--0--0-----5--5--3----|

Repeat Main Riff

Verse

  GTR I,II
e|-------------|-------------|-------------|-------------|
B|-------------|-------------|-------------|-------------|
G|-------------|-------------|-------------|-------------|
D|-------------|-------------|-------------|-------------|
A|-------------|-------------|-------------|-feedback----|
D|-------------|-------------|-------------|-feedback----|

Pre Chorus

  GTR I,II
e|-------------------------------------------------|
B|-------------------------------------------------|
G|--5--5--5--5--5--5--5--5--5--5--5--5--5--5--5--5-|
D|--5--5--5--5--5--5--5--5--5--5--5--5--5--5--5--5-|
A|--3--3--3--3--3--3--3--3--3--3--3--3--3--3--3--3-|
D|-------------------------------------------------|

  GTR I,II
e|-------------------------------------------------|
B|-------------------------------------------------|
G|-------------------------------------------------|
D|--5--5--5--5--5--5--5--5--5--5--5--5-----3--3--0-|
A|--5--5--5--5--5--5--5--5--5--5--5--5--x--3--3--0-|
D|--5--5--5--5--5--5--5--5--5--5--5--5--x--3--3--0-|

Main Riff  - 1x
Verse      - 1x

Chorus

  GTR I,II
e|-------------------------------------------------|
B|-------------------------------------------------|
G|-----7--7--7-----5--5--5-------------------------|
D|-----7--7--7-----5--5--5-----5--5--5-----3--3--0-|
A|-----5--5--5-----3--3--3-----5--5--5-----3--3--0-|
D|-----------------------------5--5--5-----3--3--0-|

  GTR I,II
e|-------------------------------------------------|
B|-------------------------------------------------|
G|-----7--7--7-----5--5--5-------------------------|
D|-----7--7--7-----5--5--5-----5--5--5-----3--3--0-|
A|-----5--5--5-----3--3--3-----5--5--5-----3--3--0-|
D|-----------------------------5--5--5-----3--3--0-|

  GTR I,II
e|-------------------------------------------------|
B|-------------------------------------------------|
G|-----7--7--7-----5--5--5-------------------------|
D|-----7--7--7-----5--5--5-----5--5--5-----3--3--0-|
A|-----5--5--5-----3--3--3-----5--5--5-----3--3--0-|
D|-----------------------------5--5--5-----3--3--0-|

  GTR I,II
e|-------------------------------------------------|
B|-------------------------------------------------|
G|--5--5--5--5--5--5--5--5--5--5--5--5--5--5--5--5-|
D|--5--5--5--5--5--5--5--5--5--5--5--5--5--5--5--5-|
A|--3--3--3--3--3--3--3--3--3--3--3--3--3--3--3--3-|
D|-------------------------------------------------|

  GTR I,II
e|-------------------------------------------------|
B|-------------------------------------------------|
G|-------------------------------------------------|
D|--5--5--5--5--5--5--5--5--5--5--5--5-----3--3--0-|
A|--5--5--5--5--5--5--5--5--5--5--5--5--x--3--3--0-|
D|--5--5--5--5--5--5--5--5--5--5--5--5--x--3--3--0-|

Main Riff  - 1x
Verse      - 1x
Pre Chorus - 1x
Chorus     - 1x

Bridge

  GTR I,II
e|-------------------------------------------------|
B|-------------------------------------------------|
G|-------------------------------------------------|
D|-----3--3--0-----3--3--0-----3--3--0--5--3--5--6-|
A|-----3--3--0-----3--3--0-----3--3--0--5--3--5--6-|
D|-----3--3--0-----3--3--0-----3--3--0--5--3--5--6-|

  GTR I,II
e|-------------------------------------------------|
B|-------------------------------------------------|
G|-------------------------------------------------|
D|-----3--3--0-----3--3--0-----3--3--0--5--3--5--6-|
A|-----3--3--0-----3--3--0-----3--3--0--5--3--5--6-|
D|-----3--3--0-----3--3--0-----3--3--0--5--3--5--6-|

  GTR I,II
e|-------------------------------------------------|
B|-------------------------------------------------|
G|-------------------------------------------------|
D|-----3--3--0-----3--3--0-----3--3--0--5--3--5--6-|
A|-----3--3--0-----3--3--0-----3--3--0--5--3--5--6-|
D|-----3--3--0-----3--3--0-----3--3--0--5--3--5--6-|

  GTR I,II
e|-------------------------------------------------|
B|-------------------------------------------------|
G|-------------------------------------------------|
D|-----3--3--0-----3--3--0-----3--3--0--5--3--5--6-|
A|-----3--3--0-----3--3--0-----3--3--0--5--3--5--6-|
D|-----3--3--0-----3--3--0-----3--3--0--5--3--5--6-|

Interlude

  GTR I,II
e|-------------------------------------------------|
B|-------------------------------------------------|
G|-------------------------------------------------|
D|--5--3--6--0-------------------------------------|
A|--5--3--6--0-------------------------------------|
D|--5--3--6--0-------------------------------------|

  GTR I,II
e|-------------------------------------------------|
B|-------------------------------------------------|
G|-------------------------------------------------|
D|--5--3--6--0-------------------------------------|
A|--5--3--6--0-------------------------------------|
D|--5--3--6--0-------------------------------------|

  GTR I,II
e|-------------------------------------------------|
B|-------------------------------------------------|
G|-------------------------------------------------|
D|--5--3--6--0-------------------------------------|
A|--5--3--6--0-------------------------------------|
D|--5--3--6--0-------------------------------------|

  GTR I,II
e|-------------------------------------------------|
B|-------------------------------------------------|
G|-------------------------------------------------|
D|--5--3--6--0-------------------------------------|
A|--5--3--6--0-----------------------------x--x--x-|
D|--5--3--6--0-----------------------------x--x--x-|

Bridge   - 1x

Verse 2

  GTR I,II
e|-------------|-------------|-------------|--------x----|
B|-------------|-------------|-------------|--------3----|
G|-------------|-------------|-------------|--------2----|
D|-------------|-------------|-------------|--------0----|
A|-------------|-------------|-------------|---fbk--0----|
D|-------------|-------------|-------------|---fbk-------|

Pre Chorus - 1x
Chorus     - 2x
Bridge     - 1x

END

------------------------------------------------------------------------------
2. How You Remind Me
------------------------------------------------------------------------------

NOTE: GTR's 3-5 can be eliminated with various effect pedals on GTR's 1 & 2.

GRT I - Drop D Tuning "Chad Kroeger" Clean (e,B,G,D,A,D)
GTR II - Drop D Tuning "Ryan Peake" Clean w. Tremelo (e,B,G,D,A,D)
GTR III - Drop D Tuning "Chad Kroeger" Distortion (e,B,G,D,A,D)
GTR IV - Drop D Tuning "Ryan Peake" Distortion w. Leslie (e,B,G,D,A,D)
GTR V - Drop D Tuning "Ryan Peake" Distortion w. Flanger (e,B,G,D,A,D)

Verse

  GTR I
e|-------------------------------------------------|
B|--------------3-----3--3-------------------------|
G|--5-----------5-----5--5--5-----------5-----5--5-|
D|--5-----------5-----5--5--3-----------3-----3--3-|
A|--3-----------3-----3--3--3-----------3-----3--3-|
D|--------------------------3-----------3-----3--3-|

  GTR I
e|-------------------------------------------------|
B|--------------1-----1--1-------------------------|
G|--3-----------3-----3--3--3-----------3-----3--3-|
D|--3-----------3-----3--3--1-----------1-----1--1-|
A|--1-----------1-----1--1--1-----------1-----1--1-|
D|--------------------------1-----------1-----1--1-|

  GTR I
e|-------------------------------------------------|
B|--------------3-----3--3-------------------------|
G|--5-----------5-----5--5--5-----------5-----5--5-|
D|--5-----------5-----5--5--3-----------3-----3--3-|
A|--3-----------3-----3--3--3-----------3-----3--3-|
D|--------------------------3-----------3-----3--3-|

  GTR I
e|-------------------------------------------------|
B|--------------1-----1--1-------------------------|
G|--3-----------3-----3--3--3-----------3-----3--3-|
D|--3-----------3-----3--3--1-----------1-----1--1-|
A|--1-----------1-----1--1--1-----------1-----1--1-|
D|--------------------------1-----------1-----1--1-|

  GTR I
e|-------------------------------------------------|
B|-------------------------------------------------|
G|--5-----------5-----5/-8--8-----------8-----8/10-|
D|--5-----------5-----5/-8--8-----------8-----8/10-|
A|--3-----------3-----3/-6--6-----------6-----6/-8-|
D|-------------------------------------------------|
 |
 |GTR II
e|--------3-----------------------3----------------|
B|-------------------------------------------------|
G|--5-----------5-----------5-----------5----------|
D|--5-----------------------5----------------------|
A|--3-----------------------3----------------------|
D|-------------------------------------------------|

  GTR I
e|-------------------------------------------------|
B|-------------------------------------------------|
G|-10----------------------------------------------|
D|-10----------------------------------------------|
A|--8----------------------------------------------|
D|-------------------------------------------------|
 |
 |GTR II
e|--------3----------------------------------------|
B|-------------------------------------------------|
G|--5-----------5-----3----------------------------|
D|--5----------------------------------------------|
A|--3----------------------------------------------|
D|-------------------------------------------------|

Pre Chorus

  GTR I
e|-------------------------------------------------|
B|--------------3-----3--3-------------------------|
G|--5-----------5-----5--5--5-----------5-----5--5-|
D|--5-----------5-----5--5--3-----------3-----3--3-|
A|--3-----------3-----3--3--3-----------3-----3--3-|
D|--------------------------3-----------3-----3--3-|

  GTR I
e|-------------------------------------------------|
B|--------------1-----1--1-------------------------|
G|--3-----------3-----3--3--3-----------3-----3--3-|
D|--3-----------3-----3--3--1-----------1-----1--1-|
A|--1-----------1-----1--1--1-----------1-----1--1-|
D|--------------------------1-----------1-----1--1-|
 |
 |GTR II
e|--------1----------------------------------------|
B|-------------------------------------------------|
G|--------------3----------------------------------|
D|-------------------------------------------------|
A|-------------------------------------------------|
D|-------------------------------------------------|

  GTR I
e|-------------------------------------------------|
B|--------------3-----3--3-------------------------|
G|--5-----------5-----5--5--5-----------5-----5--5-|
D|--5-----------5-----5--5--3-----------3-----3--3-|
A|--3-----------3-----3--3--3-----------3-----3--3-|
D|--------------------------3-----------3-----3--3-|

  GTR I
e|-------------------------------------------------|
B|--------------1-----1--1-------------------------|
G|--3-----------3-----3--3--3-----------3-----3--3-|
D|--3-----------3-----3--3--1-----------1-----1--1-|
A|--1-----------1-----1--1--1-----------1-----1--1-|
D|--------------------------1-----------1-----1--1-|
 |
 |GTR II
e|--------1----------------------------------------|
B|-------------------------------------------------|
G|--------------3----------------------------------|
D|-------------------------------------------------|
A|-------------------------------------------------|
D|-------------------------------------------------|
 |
 |GTR III
e|-------------------------------------------------|
B|-------------------------------------------------|
G|--------------------3----------------------------|
D|--3-----3-----3-----3----------------------------|
A|--1-----1-----1-----1-----1-----1-----1-----1----|
D|--------------------------1-----1-----1-----1----|
    .     .     .           .     .           

Chorus

  GTR III
e|-------------------------------------------------|
B|-------------------------------------------------|
G|--5-----5-----5-----5--5-------------------------|
D|--5-----5-----5-----5--5--1-----1-----1-----1--1-|
A|--3-----3-----3-----3--3--1-----1-----1-----1--1-|
D|--------------------------1-----1-----1-----1--1-|

  GTR III
e|-------------------------------------------------|
B|-------------------------------------------------|
G|--3-----3-----3-----3--3-------------------------|
D|--3-----3-----3-----3--3--3-----3-----3-----3--3-|
A|--1-----1-----1-----1--1--3-----3-----3-----3--3-|
D|--------------------------3-----3-----3-----3--3-|

  GTR III
e|-------------------------------------------------|
B|-------------------------------------------------|
G|--5-----5-----5-----5--5-------------------------|
D|--5-----5-----5-----5--5--1-----1-----1-----1--1-|
A|--3-----3-----3-----3--3--1-----1-----1-----1--1-|
D|--------------------------1-----1-----1-----1--1-|

  GTR III
e|-------------------------------------------------|
B|-------------------------------------------------|
G|--3-----3-----3-----3--3-------------------------|
D|--3-----3-----3-----3--3--3-----3-----3-----3--3-|
A|--1-----1-----1-----1--1--3-----3-----3-----3--3-|
D|--------------------------3-----3-----3-----3--3-|

  GTR III
e|-------------------------------------------------|
B|-------------------------------------------------|
G|--5-----5----------------------------------------|
D|--5-----5-----------------1-----1----------------|
A|--3-----3-----------------1-----1----------------|
D|--------------------------1-----1----------------|

  GTR III
e|-------------------------------------------------|
B|-------------------------------------------------|
G|--3-----3-----3-----3--3-------------------------|
D|--3-----3-----3-----3--3--3-----3-----3-----3--3-|
A|--1-----1-----1-----1--1--3-----3-----3-----3--3-|
D|--------------------------3-----3-----3-----3--3-|

  GTR III
e|-------------------------------------------------|
B|-------------------------------------------------|
G|--5-----5-----5-----5--5-------------------------|
D|--5-----5-----5-----5--5--1-----1-----1-----1--1-|
A|--3-----3-----3-----3--3--1-----1-----1-----1--1-|
D|--------------------------1-----1-----1-----1--1-|

  GTR III
e|-------------------------------------------------|
B|-------------------------------------------------|
G|--3-----3-----3-----3--3-------------------------|
D|--3-----3-----3-----3--3--3-----3-----3-----3--3-|
A|--1-----1-----1-----1--1--3-----3-----3-----3--3-|
D|--------------------------3-----3-----3-----3--3-|

Post Chorus

  GTR III
e|-------------------------------------------------|
B|-------------------------------------------------|
G|--5-----5-----5-----5--5-------------------------|
D|--5-----5-----5-----5--5--3-----3-----3-----3--3-|
A|--3-----3-----3-----3--3--3-----3-----3-----3--3-|
D|--------------------------3-----3-----3-----3--3-|
 |
 |GTR IV
e|--------3----------------------------------------|
B|-------------------------------------------------|
G|--------------5----------------------------------|
D|-------------------------------------------------|
A|-------------------------------------------------|
D|-------------------------------------------------|

  GTR III
e|-------------------------------------------------|
B|-------------------------------------------------|
G|--3-----3-----3-----3--3-------------------------|
D|--3-----3-----3-----3--3--1-----1-----1-----1--1-|
A|--1-----1-----1-----1--1--1-----1-----1-----1--1-|
D|--------------------------1-----1-----1-----1--1-|
 |
 |GTR IV
e|--------1----------------------------------------|
B|-------------------------------------------------|
G|--------------3----------------------------------|
D|-------------------------------------------------|
A|-------------------------------------------------|
D|-------------------------------------------------|

  GTR III
e|-------------------------------------------------|
B|-------------------------------------------------|
G|--5-----5-----5-----5--5-------------------------|
D|--5-----5-----5-----5--5--3-----3-----3-----3--3-|
A|--3-----3-----3-----3--3--3-----3-----3-----3--3-|
D|--------------------------3-----3-----3-----3--3-|
 |
 |GTR IV
e|--------3----------------------------------------|
B|-------------------------------------------------|
G|--------------5----------------------------------|
D|-------------------------------------------------|
A|-------------------------------------------------|
D|-------------------------------------------------|

  GTR III
e|-------------------------------------------------|
B|-------------------------------------------------|
G|--3-----3-----3-----3--3-------------------------|
D|--3-----3-----3-----3--3--1-----1-----1-----1--1-|
A|--1-----1-----1-----1--1--1-----1-----1-----1--1-|
D|--------------------------1-----1-----1-----1--1-|
 |
 |GTR IV
e|--------1----------------------------------------|
B|-------------------------------------------------|
G|--------------3----------------------------------|
D|-------------------------------------------------|
A|-------------------------------------------------|
D|-------------------------------------------------|

Verse 2

  GTR I
e|-------------------------------------------------|
B|--3----------------------------------------------|
G|--5----------------------------------------------|
D|--5----------------------------------------------|
A|--3----------------------------------------------|
D|-------------------------------------------------|
 |
 |GTR III
e|-------------------------------------------------|
B|-------------------------------------------------|
G|--5----------------------------------------------|
D|--5----------------------------------------------|
A|--3----------------------/6----------------------|
D|-------------------------------------------------|

  GTR III
e|-------------------------------------------------|
B|-------------------------------------------------|
G|-------------------------------------------------|
D|-------------------------------------------------|
A|-/8----------------------------------------------|
D|-------------------------------------------------|

  GTR I
e|--3-----3----------------------------------------|
B|--3----------------------------------------------|
G|--5-----------5----------------------------------|
D|--5----------------------------------------------|
A|--3----------------------------------------------|
D|-------------------------------------------------|

  GTR I
e|-------------------------------------------------|
B|--------------1-----1--1-------------------------|
G|--3-----------3-----3--3--3-----------3-----3--3-|
D|--3-----------3-----3--3--1-----------1-----1--1-|
A|--1-----------1-----1--1--1-----------1-----1--1-|
D|--------------------------1-----------1-----1--1-|

Pre Chorus 2

  GTR I
e|--3-----3-----------------------3----------------|
B|--3----------------------------------------------|
G|--5-----------5-----------5-----------5-----3----|
D|--5-----------------------3----------------------|
A|--3-----------------------3----------------------|
D|--------------------------3----------------------|

  GTR I
e|--1-----1----------------------------------------|
B|--1----------------------------------------------|
G|--3-----------3----------------------------------|
D|--3----------------------------------------------|
A|--1----------------------------------------------|
D|-------------------------------------------------|

  GTR I
e|--3-----3-----------------------3----------------|
B|--3----------------------------------------------|
G|--5-----------5-----------5-----------5-----3----|
D|--5-----------------------3----------------------|
A|--3-----------------------3----------------------|
D|--------------------------3----------------------|

  GTR I
e|--1-----1----------------------------------------|
B|--1----------------------------------------------|
G|--3-----------3----------------------------------|
D|--3----------------------------------------------|
A|--1----------------------------------------------|
D|-------------------------------------------------|
 |
 |GTR III
e|-------------------------------------------------|
B|-------------------------------------------------|
G|--------------------3----------------------------|
D|--3-----3-----3-----3----------------------------|
A|--1-----1-----1-----1-----1-----1-----1-----1----|
D|--------------------------1-----1-----1-----1----|
    .     .     .           .     .           

Chorus      - 1x
Post Chorus - 2x

Bridge

  GTR I
e|-------------------------------------------------|
B|--------------3-----3--3-------------------------|
G|--5-----------5-----5--5--5-----------5-----5--5-|
D|--5-----------5-----5--5--3-----------3-----3--3-|
A|--3-----------3-----3--3--3-----------3-----3--3-|
D|--------------------------3-----------3-----3--3-|
 |
 |GTR II
e|--3----------------------------------------------|
B|--3----------------------------------------------|
G|--5----------------------------------------------|
D|--5----------------------------------------------|
A|--3----------------------------------------------|
D|-------------------------------------------------|

  GTR I
e|-------------------------------------------------|
B|--------------1-----1--1-------------------------|
G|--3-----------3-----3--3--3-----------3-----3--3-|
D|--3-----------3-----3--3--1-----------1-----1--1-|
A|--1-----------1-----1--1--1-----------1-----1--1-|
D|--------------------------1-----------1-----1--1-|

  GTR I
e|-------------------------------------------------|
B|--------------3-----3--3-------------------------|
G|--5-----------5-----5--5--5-----------5-----5--5-|
D|--5-----------5-----5--5--3-----------3-----3--3-|
A|--3-----------3-----3--3--3-----------3-----3--3-|
D|--------------------------3-----------3-----3--3-|
 |
 |GTR II
e|--3----------------------------------------------|
B|--3----------------------------------------------|
G|--5----------------------------------------------|
D|--5----------------------------------------------|
A|--3----------------------------------------------|
D|-------------------------------------------------|

  GTR I
e|-------------------------------------------------|
B|--------------1-----1--1-------------------------|
G|--3-----------3-----3--3--3-----------3-----3--3-|
D|--3-----------3-----3--3--1-----------1-----1--1-|
A|--1-----------1-----1--1--1-----------1-----1--1-|
D|--------------------------1-----------1-----1--1-|
 |
 |GTR II
e|--1----------------------------------------------|
B|--1----------------------------------------------|
G|--3----------------------------------------------|
D|--3----------------------------------------------|
A|--1----------------------------------------------|
D|-------------------------------------------------|

Verse 3

  GTR I
e|-------------------------------------------------|
B|--3----------------------------------------------|
G|--5-----------------------5----------------------|
D|--5-----------------------3----------------------|
A|--3-----------------------3----------------------|
D|--------------------------3----------------------|

  GTR I
e|-------------------------------------------------|
B|--1----------------------------------------------|
G|--3-----------------------3----------------------|
D|--3-----------------------1----------------------|
A|--1-----------------------1----------------------|
D|--------------------------1----------------------|

  GTR I
e|-------------------------------------------------|
B|--3-----------------------6----------------------|
G|--5-----------------------8----------------------|
D|--5-----------------------8----------------------|
A|--3-----------------------6----------------------|
D|-------------------------------------------------|

  GTR I
e|-------------------------------------------------|
B|--8----------------------------------------------|
G|-10----------------------------------------------|
D|-10----------------------------------------------|
A|--8----------------------------------------------|
D|-------------------------------------------------|

  GTR I
e|-------------------------------------------------|
B|--3-----------------------6----------------------|
G|--5-----------------------8----------------------|
D|--5-----------------------8----------------------|
A|--3-----------------------6----------------------|
D|-------------------------------------------------|

  GTR I
e|-------------------------------------------------|
B|--8----------------------------------------------|
G|-10----------------------------------------------|
D|-10----------------------------------------------|
A|--8----------------------------------------------|
D|-------------------------------------------------|

Pre Chorus 2 - 1x

Chorus 2

  GTR III
e|-------------------------------------------------|
B|-------------------------------------------------|
G|--5-----5-----5-----5--5-------------------------|
D|--5-----5-----5-----5--5--1-----1-----1-----1--1-|
A|--3-----3-----3-----3--3--1-----1-----1-----1--1-|
D|--------------------------1-----1-----1-----1--1-|

  GTR III
e|-------------------------------------------------|
B|-------------------------------------------------|
G|--3-----3-----3-----3--3-------------------------|
D|--3-----3-----3-----3--3--3-----3-----3-----3--3-|
A|--1-----1-----1-----1--1--3-----3-----3-----3--3-|
D|--------------------------3-----3-----3-----3--3-|

  GTR III
e|-------------------------------------------------|
B|-------------------------------------------------|
G|--5-----5-----5-----5--5-------------------------|
D|--5-----5-----5-----5--5--1-----1-----1-----1--1-|
A|--3-----3-----3-----3--3--1-----1-----1-----1--1-|
D|--------------------------1-----1-----1-----1--1-|

  GTR III
e|-------------------------------------------------|
B|-------------------------------------------------|
G|--3----------------------------------------------|
D|--3----------------------------------------------|
A|--1----------------------------------------------|
D|-------------------------------------------------|

  GTR III
e|-------------------------------------------------|
B|-------------------------------------------------|
G|--5-----5----------------------------------------|
D|--5-----5-----------------1-----1----------------|
A|--3-----3-----------------1-----1----------------|
D|--------------------------1-----1----------------|

  GTR III
e|-------------------------------------------------|
B|-------------------------------------------------|
G|--3-----3-----3-----3--3-------------------------|
D|--3-----3-----3-----3--3--3-----3-----3-----3--3-|
A|--1-----1-----1-----1--1--3-----3-----3-----3--3-|
D|--------------------------3-----3-----3-----3--3-|

  GTR III
e|-------------------------------------------------|
B|-------------------------------------------------|
G|--5-----5-----5-----5--5-------------------------|
D|--5-----5-----5-----5--5--1-----1-----1-----1--1-|
A|--3-----3-----3-----3--3--1-----1-----1-----1--1-|
D|--------------------------1-----1-----1-----1--1-|

  GTR III
e|-------------------------------------------------|
B|-------------------------------------------------|
G|--3-----3-----3-----3--3-------------------------|
D|--3-----3-----3-----3--3--3-----3-----3-----3--3-|
A|--1-----1-----1-----1--1--3-----3-----3-----3--3-|
D|--------------------------3-----3-----3-----3--3-|

Post Chorus  - 1x

Outro

  GTR III
e|-------------------------------------------------|
B|-------------------------------------------------|
G|--5-----5-----5-----5--5-------------------------|
D|--5-----5-----5-----5--5--3-----3-----3-----3--3-|
A|--3-----3-----3-----3--3--3-----3-----3-----3--3-|
D|--------------------------3-----3-----3-----3--3-|
 |
 |GTR IV
e|--------3----------------------------------------|
B|-------------------------------------------------|
G|--------------5----------------------------------|
D|-------------------------------------------------|
A|-------------------------------------------------|
D|-------------------------------------------------|

  GTR III
e|-------------------------------------------------|
B|-------------------------------------------------|
G|--3-----3-----3-----3--3-------------------------|
D|--3-----3-----3-----3--3--1-----1-----1-----1--1-|
A|--1-----1-----1-----1--1--1-----1-----1-----1--1-|
D|--------------------------1-----1-----1-----1--1-|
 |
 |GTR IV
e|--------1----------------------------------------|
B|-------------------------------------------------|
G|--------------3----------------------------------|
D|-------------------------------------------------|
A|-------------------------------------------------|
D|-------------------------------------------------|

  GTR III
e|-------------------------------------------------|
B|-------------------------------------------------|
G|--5-----5-----5-----5--5-------------------------|
D|--5-----5-----5-----5--5--3-----3-----3-----3--3-|
A|--3-----3-----3-----3--3--3-----3-----3-----3--3-|
D|--------------------------3-----3-----3-----3--3-|
 |
 |GTR IV
e|--------3----------------------------------------|
B|-------------------------------------------------|
G|--------------5----------------------------------|
D|-------------------------------------------------|
A|-------------------------------------------------|
D|-------------------------------------------------|

  GTR III
e|-------------------------------------------------|
B|-------------------------------------------------|
G|--3----------------------------------------------|
D|--3----------------------------------------------|
A|--1----------------------------------------------|
D|-------------------------------------------------|
 |
 |GTR IV
e|--------1----------------------------------------|
B|-------------------------------------------------|
G|--------------3----------------------------------|
D|-------------------------------------------------|
A|-------------------------------------------------|
D|-------------------------------------------------|
 |
 |GTR V
e|--1-----3-----------------3-----6----------------|
B|--------------1----------------------------------|
G|-------------------------------------------------|
D|-------------------------------------------------|
A|-------------------------------------------------|
D|-------------------------------------------------|

  GTR V
e|--1-----3-----------------3-----6----------------|
B|--------------1----------------------------------|
G|-------------------------------------------------|
D|-------------------------------------------------|
A|-------------------------------------------------|
D|-------------------------------------------------|

  GTR V
e|--1-----3-----------------3-----6----------------|
B|--------------1----------------------------------|
G|-------------------------------------------------|
D|-------------------------------------------------|
A|-------------------------------------------------|
D|-------------------------------------------------|

END

------------------------------------------------------------------------------
3. Woke Up This Morning
------------------------------------------------------------------------------

NOTE: GTR III is just GTR II with a Tremelo Effect

GTR I - Drop C Tuning "Chad Kroeger" (d,A,F,C,G,C)
GTR II - Drop C Tuning "Ryan Peake" (d,A,F,C,G,C)
GTR III - Drop C Tuning "Ryan Peake" Clean w. Tremelo (d,A,F,C,G,C)

Intro

  GTR I
d|-------------------------------------------------|
A|-------------------------------------------------|
F|-------------------------------------------------|
C|-------12----12----------12----12----------10-10-|
G|-----------9-----------------9--------------9--9-|
C|--0--0--------------0--0--------------0--0--0--0-|
 |  .  .              .  .              .  .
 |GTR II
d|-------------------------------------------------|
A|-------------------------------------------------|
F|-------------------------------------------------|
C|-------------------------------------------10-10-|
G|--------------------------------------------9--9-|
C|--------------------------------------------0--0-|

  GTR I
d|-------------------------------------------------|
A|-------------------------------------------------|
F|-------------------------------------------------|
C|-------12----12----------12----12-----------8--8-|
G|-----------9-----------------9--------------8--8-|
C|--0--0--------------0--0--------------0--0--8--8-|
 |  .  .              .  .              .  .
 |GTR II
d|-------------------------------------------------|
A|-------------------------------------------------|
F|-------------------------------------------------|
C|--------------------------------------------8--8-|
G|--------------------------------------------8--8-|
C|--------------------------------------------8--8-|

  GTR I
d|-------------------------------------------------|
A|-------------------------------------------------|
F|-------------------------------------------------|
C|-------12----12----------12----12-----------3--3-|
G|-----------9-----------------9--------------3--3-|
C|--0--0--------------0--0--------------0--0--3--3-|
 |  .  .              .  .              .  .
 |GTR II
d|-------------------------------------------------|
A|-------------------------------------------------|
F|-------------------------------------------------|
C|--------------------------------------------3--3-|
G|--------------------------------------------3--3-|
C|--------------------------------------------3--3-|

  GTR I
d|-------------------------------------------------|
A|-------------------------------------------------|
F|--------------------------------5--5-------------|
C|-------12----12\----------------5--5--------3--3-|
G|-----------9--------------------3--3--------3--3-|
C|--0--0--------------------0--0--------0--0--3--3-|
 |  .  .                    .  .        .  .
 |GTR II
d|-------------------------------------------------|
A|-------------------------------------------------|
F|--------------------------------5--5-------------|
C|--------------------------------5--5--------3--3-|
G|--------------------------------3--3--------3--3-|
C|--------------------------0--0--------0--0--3--3-|
                            .  .        .  .

Main Riff

  GTR I,II
d|-------------------------------------------------|
A|-------------------------------------------------|
F|-------------------------------------------------|
C|-------12----12----------12----12----------10\---|
G|-----------9-----------------9--------------9\---|
C|--0--0--------------0--0--------------------0----|
    .  .              .  .                   

  GTR I,II
d|-------------------------------------------------|
A|-------------------------------------------------|
F|-------------------------------------------------|
C|-------12----12----------12----12-----------8\---|
G|-----------9-----------------9--------------8\---|
C|--0--0--------------0--0--------------------8\---|
    .  .              .  .                  

  GTR I,II
d|-------------------------------------------------|
A|-------------------------------------------------|
F|-------------------------------------------------|
C|-------12----12----------12----12-----------3\---|
G|-----------9-----------------9--------------3\---|
C|--0--0--------------0--0--------------------3\---|
    .  .              .  .                  

  GTR I,II
d|-------------------------------------------------|
A|-------------------------------------------------|
F|--------------------------------5--5-------------|
C|-------12----12\----------------5--5--------3--3-|
G|-----------9--------------------3--3--------3--3-|
C|--0--0--------------------0--0--------0--0--3--3-|
    .  .                    .  .        .  .

Verse

  GTR I,II
d|-------------------------------------------------|
A|-------------------------------------------------|
F|-------------------------------------------------|
C|-------12----12----------12----12----------10-10-|
G|-----------9-----------------9-------------------|
C|--0--0--------------0--0--------------0--0-------|
    .  .              .  .              .  .

  GTR I,II
d|-------------------------------------------------|
A|-------------------------------------------------|
F|-------------------------------------------------|
C|-------12----12----------12----12----------10-10-|
G|-----------9-----------------9-------------------|
C|--0--0--------------0--0--------------0--0-------|
    .  .              .  .              .  .

  GTR I,II
d|-------------------------------------------------|
A|-------------------------------------------------|
F|-------------------------------------------------|
C|-12-12-------------------------------------------|
G|--9--9-------------------------------------------|
C|--0--0-------------------------------------------|
        

  GTR I,II
d|-------------------------------------------------|
A|-------------------------------------------------|
F|-------------------------------------------------|
C|-------------------------------------------------|
G|--0--0-----------------------------Pickslide-----|
C|--0--0-----------------------------Pickslide-----|
        

Verse 2

  GTR I,II
d|-------------------------------------------------|
A|-------------------------------------------------|
F|-------------------------------------------------|
C|-------12----12----------------10/12-------12/14-|
G|-----------9-------------------------------------|
C|--0--0--------------0--0--8--8-------10-10-------|
    .  .              .  .  .  .        .  .

  GTR I,II
d|-------------------------------------------------|
A|-------------------------------------------------|
F|-------------------------------------------------|
C|-------12----12----------------10/12-------12/14-|
G|-----------9-------------------------------------|
C|--0--0--------------0--0--8--8-------10-10-------|
    .  .              .  .  .  .        .  .

  GTR I,II
d|-------------------------------------------------|
A|-------------------------------------------------|
F|-------------------------------------------------|
C|-------12----12----------------10/12-------12/14-|
G|-----------9-------------------------------------|
C|--0--0--------------0--0--8--8-------10-10-------|
    .  .              .  .  .  .        .  .

  GTR I,II
d|-------------------------------------------------|
A|-------------------------------------------------|
F|-------------------------------------------------|
C|-------12----12----------------10/12-------12/14-|
G|-----------9-------------------------------------|
C|--0--0--------------0--0--8--8-------10-10-------|
    .  .              .  .  .  .        .  .

Pre Chorus

  GTR I
d|-------------------------------------------------|
A|-------------------------------------------------|
F|-------------------------------------------------|
C|--8----------------------------------------------|
G|--8----------------------------------------------|
C|--8----------------------------------------------|
 |
 |GTR III
d|-------------------------------------------------|
A|-------------------------------------------------|
F|--------------7-----------7-----------7----------|
C|-------------------------------------------------|
G|--------8-----------8-----------8-----------8----|
C|--8----------------------------------------------|

  GTR I
d|-------------------------------------------------|
A|-------------------------------------------------|
F|-------------------------------------------------|
C|-10----------------------------------------------|
G|-10----------------------------------------------|
C|-10----------------------------------------------|
 |
 |GTR III
d|-------------------------------------------------|
A|-------------------------------------------------|
F|--------------9-----------9----10-----9----------|
C|-------------------------------------------------|
G|-------10----------10----------------------10----|
C|-10----------------------------------------------|

  GTR I
d|-------------------------------------------------|
A|-------------------------------------------------|
F|-------------------------------------------------|
C|-------------------------------------------------|
G|-12----12----12----12----12----12----12----12----|
C|-12----12----12----12----12----12----12----12----|
 |  .     .     .     .     .     .     .     .
 |GTR III
d|-------------------------------------------------|
A|-------------------------------------------------|
F|-------------------------------------------------|
C|-12----------------------------------------------|
G|-12----------------------------------------------|
C|-12----------------------------------------------|

  GTR I
d|-------------------------------------------------|
A|-------------------------------------------------|
F|-------------------------------------------------|
C|-------------------------12----12----12----12----|
G|-12----12----12----12----12----12----12----12----|
C|-12----12----12----12----12----12----12----12----|
 |  .     .     .     .                        
 |GTR II
d|-------------------------------------------------|
A|-------------------------------------------------|
F|-------------------------------------------------|
C|-------------------------------------------------|
G|--------------------------------------Pickslide--|
C|--------------------------------------Pickslide--|

Chorus

  GTR I,II
d|-------------------------------------------------|
A|-------------------------------------------------|
F|-------------------------------------------------|
C|-------------------------------------------------|
G|--0-----------7--8--9-----------9-----9-----0----|
C|--0-----------0--0--0-----------0-----0-----0----|

  GTR I,II
d|-------------------------------------------------|
A|-------------------------------------------------|
F|-------------------------------------------------|
C|--8-----8-----------3-----------3-----3----------|
G|--8-----8-----------3-----------3-----3-----0--0-|
C|--8-----8-----------3-----------3-----3-----0--0-|
                                              .  .

  GTR I,II
d|-------------------------------------------------|
A|-------------------------------------------------|
F|-------------------------------------------------|
C|-------------------------------------------------|
G|--0-----------7--8--9-----------9-----9-----0----|
C|--0-----------0--0--0-----------0-----0-----0----|
                .  .

  GTR I,II
d|-------------------------------------------------|
A|-------------------------------------------------|
F|-------------------------------------------------|
C|--8-----8-----------3-----------3-----3-----3----|
G|--8-----8-----------3-----------3-----3-----3----|
C|--8-----8-----------3-----------3-----3-----3----|

  GTR I,II
d|-------------------------------------------------|
A|-------------------------------------------------|
F|-------------------------------------------------|
C|-------------------------------------------------|
G|--0-----------7--8--9-----------9-----9-----0----|
C|--0-----------0--0--0-----------0-----0-----0----|
                .  .

  GTR I,II
d|-------------------------------------------------|
A|-------------------------------------------------|
F|-------------------------------------------------|
C|--8-----8-----------3-----------3-----3-----3----|
G|--8-----8-----------3-----------3-----3-----3----|
C|--8-----8-----------3-----------3-----3-----3----|

  GTR I,II
d|-------------------------------------------------|
A|-------------------------------------------------|
F|-------------------------------------------------|
C|--8-----8-----------3-----------3-----3-----3----|
G|--8-----8-----------3-----------3-----3-----3----|
C|--8-----8-----------3-----------3-----3-----3----|

  GTR I,II
d|-------------------------------------------------|
A|-------------------------------------------------|
F|-------------------------------------------------|
C|--5----------------------------------------------|
G|--5----------------------------------------------|
C|--5----------------------------------------------|

  GTR I,II
d|-------------------------------------------------|
A|-------------------------------------------------|
F|-------------------------------------------------|
C|--3----------------------------------------------|
G|--3----------------------------------------------|
C|--3----------------------------------------------|

Main Riff
Verse
Verse 2
Pre Chorus
Chorus
Main Riff

Bridge

  GTR I
d|-------------------------------------------------|
A|-------------------------------------------------|
F|-------------------------------------------------|
C|-------------------------------------------------|
G|--------------7--8--9----------/7-----5-----3----|
C|--0-----0--0-------------------------------------|
          .  .

  GTR I
d|-------------------------------------------------|
A|-------------------------------------------------|
F|-------------------------------------------------|
C|-------------------------------------------------|
G|--------------7--8--9----------------------------|
C|--0-----0--0--------------------5b----5-----3----|
 |        .  .
 |GTR II
d|-------------------------------------------------|
A|-------------------------------------------------|
F|-------------------------------------------------|
C|--------------------------------5b----5-----3----|
G|-------------------------------------------------|
C|-------------------------------------------------|

  GTR I
d|-------------------------------------------------|
A|-------------------------------------------------|
F|-------------------------------------------------|
C|-------------------------------------------------|
G|--------------7--8--9----------/8-----5-----3----|
C|--0-----0--0-------------------------------------|
 |        .  .
 |GTR II
d|-------------------------------------------------|
A|-------------------------------------------------|
F|--------------9-10-11---------/10-----7-----5----|
C|-------------------------------------------------|
G|-------------------------------------------------|
C|--0-----0--0-------------------------------------|
          .  .

  GTR I
d|-------------------------------------------------|
A|-------------------------------------------------|
F|-------------------------------------------------|
C|-------------------------------------------------|
G|--------------7--8--9----------------------------|
C|--0-----0--0--------------------5b----5-----3----|
 |        .  .
 |GTR II
d|-------------------------------------------------|
A|-------------------------------------------------|
F|--------------9-10-11----------------------------|
C|--------------------------------5b----5-----3----|
G|-------------------------------------------------|
C|--0-----0--0-------------------------------------|
          .  .

  GTR I
d|-------------------------------------------------|
A|-------------------------------------------------|
F|-------------------------------------------------|
C|-------------------------------------------------|
G|--------------7--8--9----------/7-----3-----5----|
C|--0-----0--0-------------------------------------|
 |        .  .
 |GTR II
d|-------------------------------------------------|
A|-------------------------------------------------|
F|--------------9-10-11----------/9-----5-----7----|
C|-------------------------------------------------|
G|-------------------------------------------------|
C|--0-----0--0-------------------------------------|
          .  .

  GTR I
d|-------------------------------------------------|
A|-------------------------------------------------|
F|-------------------------------------------------|
C|-------------------------------------------------|
G|--------------7--8--9----------------------------|
C|--0-----0--0-------------------/7-----3-----5----|
 |        .  .
 |GTR II
d|-------------------------------------------------|
A|-------------------------------------------------|
F|--------------9-10-11----------------------------|
C|-------------------------------/7-----3-----5----|
G|-------------------------------------------------|
C|--0-----0--0-------------------------------------|
          .  .

  GTR I
d|-------------------------------------------------|
A|-------------------------------------------------|
F|-------------------------------------------------|
C|-------------------------------------------------|
G|--------------7--8--9----------/7-----3-----5----|
C|--0-----0--0-------------------------------------|
 |        .  .
 |GTR II
d|-------------------------------------------------|
A|-------------------------------------------------|
F|--------------9-10-11----------/9-----5-----7----|
C|-------------------------------------------------|
G|-------------------------------------------------|
C|--0-----0--0-------------------------------------|
          .  .

  GTR I
d|-------------------------------------------------|
A|-------------------------------------------------|
F|-------------------------------------------------|
C|-------------------------------------------------|
G|--------------7--8--9----------------------------|
C|--0-----0--0-------------------/7-----3-----5----|
 |        .  .
 |GTR II
d|-------------------------------------------------|
A|-------------------------------------------------|
F|--------------9-10-11----------------------------|
C|-------------------------------/7-----3-----5----|
G|-------------------------------------------------|
C|--0-----0--0-------------------------------------|
          .  .

Pre Chorus
Chorus
Main Riff

END

------------------------------------------------------------------------------
4. Too Bad
------------------------------------------------------------------------------

NOTE: I couldn't figure out the solo.

GTR I - Drop C Tuning "Chad Kroeger" Distortion (d,A,F,C,G,C)
GTR II - Drop C Tuning "Ryan Peake" Distortion(d,A,F,C,G,C)
GTR III - Drop C Tuning "Ryan Peake" Clean w. Tremelo (d,A,F,C,G,C)
GTR IV - Drop C Tuning "Chad Kroeger" Distortion w. slide (d,A,F,C,G,C)
GTR V - Drop C Tuning "Chad Kroeger" Distortion (solo) (d,A,F,C,G,C)
GTR VI - Drop C Tuning "Ryan Peake" Distortion (solo) (d,A,F,C,G,C)

Intro

  GTR III
d|-------------------------------------------------|
A|-------------------------------------------------|
F|-------------------------------------------------|
C|--7-----7-----7-----7-----7-----7-----7-----7----|
G|-------------------------------------------------|
C|-----0-----0-----0-----0-----0-----0-----0-----0-|

  GTR III
d|-------------------------------------------------|
A|-------------------------------------------------|
F|-------------------------------------------------|
C|--7-----7-----7-----7-----7-----7-----7-----7----|
G|-------------------------------------------------|
C|-----0-----0-----0-----0-----3-----3-----3-----3-|

  GTR III
d|-------------------------------------------------|
A|-------------------------------------------------|
F|-------------------------------------------------|
C|--7-----7-----7-----7-----7-----7-----7-----7----|
G|-------------------------------------------------|
C|-----5-----5-----5-----5-----5-----5-----5-----5-|

Verse

  GTR III
d|-------------------------------------------------|
A|-------------------------------------------------|
F|-------------------------------------------------|
C|--7-----7-----7-----7-----7-----7-----7-----7----|
G|-------------------------------------------------|
C|-----0-----0-----0-----0-----3-----3-----3-----3-|

  GTR III
d|-------------------------------------------------|
A|-------------------------------------------------|
F|-------------------------------------------------|
C|--7-----7-----7-----7-----7-----7-----7-----7----|
G|-------------------------------------------------|
C|-----5-----5-----5-----5-----5-----5-----5-----5-|

  GTR III
d|-------------------------------------------------|
A|-------------------------------------------------|
F|-------------------------------------------------|
C|--7-----7-----7-----7-----7-----7-----7-----7----|
G|-------------------------------------------------|
C|-----0-----0-----0-----0-----3-----3-----3-----3-|

  GTR III
d|-------------------------------------------------|
A|-------------------------------------------------|
F|-------------------------------------------------|
C|--7-----7-----7-----7-----7-----7-----7-----7----|
G|-------------------------------------------------|
C|-----5-----5-----5-----5-----5-----5-----5-----5-|

  GTR III
d|-------------------------------------------------|
A|-------------------------------------------------|
F|-------------------------------------------------|
C|--7-----7-----7-----7-----7-----7-----7-----7----|
G|-------------------------------------------------|
C|-----0-----0-----0-----0-----3-----3-----3-----3-|

  GTR I,II
d|-------------------------------------------------|
A|-------------------------------------------------|
F|-------------------------------------------------|
C|-----------------------------------------x--x----|
G|-----------------------------------------x--x----|
C|-----------------------------------------x--x----|
 |                                             
 |GTR III
d|-------------------------------------------------|
A|-------------------------------------------------|
F|-------------------------------------------------|
C|--7-----7-----7-----7----------------------------|
G|-------------------------------------------------|
C|-----5-----5-----5-----5\------------------------|

Chorus

  GTR I
d|-------------------------------------------------|
A|-------------------------------------------------|
F|-------------------------------------------------|
C|--8--8--8--8--8--8--8--8--3--3--3--3--3--3--3--3-|
G|--8--8--8--8--8--8--8--8--3--3--3--3--3--3--3--3-|
C|--8--8--8--8--8--8--8--8--3--3--3--3--3--3--3--3-|
 |                                             
 |GTR II
d|-------------------------------------------------|
A|-------------------------------------------------|
F|-------------------------10-10-10-10-10-10-10-10-|
C|--8--8--8--8--8--8--8--8-10-10-10-10-10-10-10-10-|
G|--8--8--8--8--8--8--8--8--8--8--8--8--8--8--8--8-|
C|--8--8--8--8--8--8--8--8-------------------------|

  GTR I,II
d|-------------------------------------------------|
A|-------------------------------------------------|
F|-------------------------------------------------|
C|--3--5--5--3--3--5--5--3--3--5--5--3--3--5--5--3-|
G|--3--5--5--3--3--5--5--3--3--5--5--3--3--5--5--3-|
C|--3--5--5--3--3--5--5--3--3--5--5--3--3--5--5--3-|

  GTR I
d|-------------------------------------------------|
A|-------------------------------------------------|
F|-------------------------------------------------|
C|--8--8--8--8--8--8--8--8--3--3--3--3--3--3--3--3-|
G|--8--8--8--8--8--8--8--8--3--3--3--3--3--3--3--3-|
C|--8--8--8--8--8--8--8--8--3--3--3--3--3--3--3--3-|
 |                                             
 |GTR II
d|-------------------------------------------------|
A|-------------------------------------------------|
F|-------------------------10-10-10-10-10-10-10-10-|
C|--8--8--8--8--8--8--8--8-10-10-10-10-10-10-10-10-|
G|--8--8--8--8--8--8--8--8--8--8--8--8--8--8--8--8-|
C|--8--8--8--8--8--8--8--8-------------------------|

  GTR I,II
d|-------------------------------------------------|
A|-------------------------------------------------|
F|-------------------------------------------------|
C|--3--5--5--3--3--5--5--3--3--5--5--3--3--5--5--3-|
G|--3--5--5--3--3--5--5--3--3--5--5--3--3--5--5--3-|
C|--3--5--5--3--3--5--5--3--3--5--5--3--3--5--5--3-|

Post Chorus

  GTR I,II
d|-------------------------------------------------|
A|-------------------------------------------------|
F|--7----------------------------------------------|
C|--7----------------------------------------------|
G|--5----------------------------------------------|
C|-------------------------------------------------|
 |                                             
 |GTR III
d|-------------------------------------------------|
A|-------------------------------------------------|
F|-------------------------------------------------|
C|--7-----7-----7-----7-----7-----7-----7-----7----|
G|-------------------------------------------------|
C|-----0-----0-----0-----0-----3-----3-----3-----3-|

  GTR III
d|-------------------------------------------------|
A|-------------------------------------------------|
F|-------------------------------------------------|
C|--7-----7-----7-----7-----7-----7-----7-----7----|
G|-------------------------------------------------|
C|-----5-----5-----5-----5-----5-----5-----5-----5-|
 |                                             
 |GTR IV
d|-------------------------------------------------|
A|-------------------------------------------------|
F|----------------------------14\------------------|
C|-------------------------------------------------|
G|-------------------------------------------------|
C|-------------------------------------------------|

Verse 2

  GTR III
d|-------------------------------------------------|
A|-------------------------------------------------|
F|-------------------------------------------------|
C|--7-----7-----7-----7-----7-----7-----7-----7----|
G|-------------------------------------------------|
C|-----0-----0-----0-----0-----3-----3-----3-----3-|
 |                                             
 |GTR IV
d|-------------------------------------------------|
A|-------------------------------------------------|
F|-16\---------------------------------------------|
C|-------------------------------------------------|
G|-------------------------------------------------|
C|-------------------------------------------------|

  GTR III
d|-------------------------------------------------|
A|-------------------------------------------------|
F|-------------------------------------------------|
C|--7-----7-----7-----7-----7-----7-----7-----7----|
G|-------------------------------------------------|
C|-----5-----5-----5-----5-----5-----5-----5-----5-|
 |                                             
 |GTR IV
d|-------------------------------------------------|
A|-------------------------------------------12\---|
F|-------------------------------------------------|
C|-------------------------------------------------|
G|-------------------------------------------------|
C|-------------------------------------------------|

  GTR III
d|-------------------------------------------------|
A|-------------------------------------------------|
F|-------------------------------------------------|
C|--7-----7-----7-----7-----7-----7-----7-----7----|
G|-------------------------------------------------|
C|-----0-----0-----0-----0-----3-----3-----3-----3-|

  GTR III
d|-------------------------------------------------|
A|-------------------------------------------------|
F|-------------------------------------------------|
C|--7-----7-----7-----7-----7-----7-----7-----7----|
G|-------------------------------------------------|
C|-----5-----5-----5-----5-----5-----5-----5-----5-|
 |                                             
 |GTR IV
d|-------------------------------------------------|
A|-------------------------------------------12\---|
F|-------------------------------------------------|
C|-------------------------------------------------|
G|-------------------------------------------------|
C|-------------------------------------------------|

  GTR III
d|-------------------------------------------------|
A|-------------------------------------------------|
F|-------------------------------------------------|
C|--7-----7-----7-----7-----7-----7-----7-----7----|
G|-------------------------------------------------|
C|-----0-----0-----0-----0-----3-----3-----3-----3-|

  GTR III
d|-------------------------------------------------|
A|-------------------------------------------------|
F|-------------------------------------------------|
C|--7-----7-----7-----7-----7-----7-----7-----7----|
G|-------------------------------------------------|
C|-----5-----5-----5-----5-----5-----5-----5-----5-|
 |                                             
 |GTR IV
d|-------------------------------------------------|
A|-------------------------------------------12\---|
F|-------------------------------------------------|
C|-------------------------------------------------|
G|-------------------------------------------------|
C|-------------------------------------------------|

  GTR III
d|-------------------------------------------------|
A|-------------------------------------------------|
F|-------------------------------------------------|
C|--7-----7-----7-----7-----7-----7-----7-----7----|
G|-------------------------------------------------|
C|-----0-----0-----0-----0-----3-----3-----3-----3-|

  GTR I,II
d|-------------------------------------------------|
A|-------------------------------------------------|
F|-------------------------------------------------|
C|-----------------------------------------x--x----|
G|-----------------------------------------x--x----|
C|-----------------------------------------x--x----|
 |                                             
 |GTR III
d|-------------------------------------------------|
A|-------------------------------------------------|
F|-------------------------------------------------|
C|--7-----7-----7-----7----------------------------|
G|-------------------------------------------------|
C|-----5-----5-----5-----5\------------------------|

Chorus

Chorus 2

  GTR I
d|-------------------------------------------------|
A|-------------------------------------------------|
F|-------------------------------------------------|
C|--8--8--8--8--8--8--8--8--3--3--3--3--3--3--3--3-|
G|--8--8--8--8--8--8--8--8--3--3--3--3--3--3--3--3-|
C|--8--8--8--8--8--8--8--8--3--3--3--3--3--3--3--3-|
 |                                             
 |GTR II
d|-------------------------------------------------|
A|-------------------------------------------------|
F|-------------------------10-10-10-10-10-10-10-10-|
C|--8--8--8--8--8--8--8--8-10-10-10-10-10-10-10-10-|
G|--8--8--8--8--8--8--8--8--8--8--8--8--8--8--8--8-|
C|--8--8--8--8--8--8--8--8-------------------------|

  GTR I,II
d|-------------------------------------------------|
A|-------------------------------------------------|
F|-------------------------------------------------|
C|--3--5--5--3--3--5--5--3--3--5--5--3--3--5--5--3-|
G|--3--5--5--3--3--5--5--3--3--5--5--3--3--5--5--3-|
C|--3--5--5--3--3--5--5--3--3--5--5--3--3--5--5--3-|

  GTR I
d|-------------------------------------------------|
A|-------------------------------------------------|
F|-------------------------------------------------|
C|--8--8--8--8--8--8--8--8--3--3--3--3--3--3--3--3-|
G|--8--8--8--8--8--8--8--8--3--3--3--3--3--3--3--3-|
C|--8--8--8--8--8--8--8--8--3--3--3--3--3--3--3--3-|
 |                                             
 |GTR II
d|-------------------------------------------------|
A|-------------------------------------------------|
F|-------------------------10-10-10-10-10-10-10-10-|
C|--8--8--8--8--8--8--8--8-10-10-10-10-10-10-10-10-|
G|--8--8--8--8--8--8--8--8--8--8--8--8--8--8--8--8-|
C|--8--8--8--8--8--8--8--8-------------------------|

  GTR I,II
d|-------------------------------------------------|
A|-------------------------------------------------|
F|-------------------------------------------------|
C|--3--5--5--3--3--5--5--3--3--5--5--3--3--5--5--3-|
G|--3--5--5--3--3--5--5--3--3--5--5--3--3--5--5--3-|
C|--3--5--5--3--3--5--5--3--3--5--5--3--3--5--5--3-|

Guitar Solo

  GTR I,II
d|-------------------------------------------------|
A|-------------------------------------------------|
F|-------------------------------------------------|
C|-------------------------------------------------|
G|-------------------------------------------------|
C|--0--------------------2--3---------/12----------|

  GTR I,II
d|-------------------------------------------------|
A|-------------------------------------------------|
F|-------------------------------------------------|
C|-------------------------------------------------|
G|-------------------------------------------------|
C|--5--------------------------------------3-------|

  GTR I,II
d|-------------------------------------------------|
A|-------------------------------------------------|
F|-------------------------------------------------|
C|-------------------------------------------------|
G|-------------------------------------------------|
C|--0--------------------2--3---------/12----------|

  GTR I,II
d|-------------------------------------------------|
A|-------------------------------------------------|
F|-------------------------------------------------|
C|-------------------------------------------------|
G|-------------------------------------------------|
C|--5----------------------------------------------|

  GTR I,II
d|-------------------------------------------------|
A|-------------------------------------------------|
F|-------------------------------------------------|
C|-------------------------------------------------|
G|-------------------------------------------------|
C|--0--------------------2--3---------/12----------|

  GTR I,II
d|-------------------------------------------------|
A|-------------------------------------------------|
F|-------------------------------------------------|
C|-------------------------------------------------|
G|-----------------------------------------3-------|
C|--5----------------------------------------------|

  GTR I,II
d|-------------------------------------------------|
A|-------------------------------------------------|
F|-------------------------------------------------|
C|-------------------------------------------------|
G|-------------------------------------------------|
C|--0--------------------2--3---------/12----------|

  GTR I,II
d|-------------------------------------------------|
A|-------------------------------------------------|
F|-------------------------------------------------|
C|--------------------------------------x--x-------|
G|--------------------------------------x--x-------|
C|--5-----------------------------------x--x-------|

Post Solo

  GTR I,II
d|-------------------------------------------------|
A|-------------------------------------------------|
F|-------------------------------------------------|
C|--0----------------------------------------------|
G|--0----------------------------------------------|
C|--0----------------------------------------------|
 |                                             
 |GTR III
d|-------------------------------------------------|
A|-------------------------------------------------|
F|-------------------------------------------------|
C|--7-----7-----7-----7-----7-----7-----7-----7----|
G|-------------------------------------------------|
C|-----0-----0-----0-----0-----0-----0-----0-----0-|

  GTR III
d|-------------------------------------------------|
A|-------------------------------------------------|
F|-------------------------------------------------|
C|--7-----7-----7-----7-----7-----7-----7-----7----|
G|-------------------------------------------------|
C|-----0-----0-----0-----0-----3-----3-----3-----3-|

  GTR III
d|-------------------------------------------------|
A|-------------------------------------------------|
F|-------------------------------------------------|
C|--7-----7-----7-----7-----7----------------------|
G|--------------------------5----------------------|
C|-----5-----5-----5-----5--5----------------------|

Verse 3

  GTR III
d|-------------------------------------------------|
A|-------------------------------------------------|
F|-------------------------------------------------|
C|--------------7-----7-----7-----7-----7-----7----|
G|-------------------------------------------------|
C|-----------------0-----0-----3-----3-----3-----3-|

  GTR III
d|-------------------------------------------------|
A|-------------------------------------------------|
F|-------------------------------------------------|
C|--7-----7-----7-----7-----7-----7-----7-----7----|
G|-------------------------------------------------|
C|-----5-----5-----5-----5-----5-----5-----5-----5-|

  GTR III
d|-------------------------------------------------|
A|-------------------------------------------------|
F|-------------------------------------------------|
C|--7-----7-----7-----7-----7-----7-----7-----7----|
G|-------------------------------------------------|
C|-----0-----0-----0-----0-----3-----3-----3-----3-|

  GTR III
d|-------------------------------------------------|
A|-------------------------------------------------|
F|-------------------------------------------------|
C|--7-----7-----7-----7-----7-----7-----7-----7----|
G|-------------------------------------------------|
C|-----5-----5-----5-----5-----5-----5-----5-----5-|

  GTR III
d|-------------------------------------------------|
A|-------------------------------------------------|
F|-------------------------------------------------|
C|--7-----7-----7-----7-----7-----7-----7-----7----|
G|-------------------------------------------------|
C|-----0-----0-----0-----0-----3-----3-----3-----3-|

  GTR III
d|-------------------------------------------------|
A|-------------------------------------------------|
F|-------------------------------------------------|
C|--7-----7-----7-----7----------------------------|
G|-------------------------------------------------|
C|-----5-----5-----5-----5-------------------------|

  GTR I,II
d|-------------------------|
A|-------------------------|
F|-------------------------|
C|-----------------x--x----|
G|-----------------x--x----|
C|-----------------x--x----|

Chorus

Chorus 3

  GTR I
d|-------------------------------------------------|
A|-------------------------------------------------|
F|-------------------------------------------------|
C|--8--8--8--8--8--8--8--8--3--3--3--3--3--3--3--3-|
G|--8--8--8--8--8--8--8--8--3--3--3--3--3--3--3--3-|
C|--8--8--8--8--8--8--8--8--3--3--3--3--3--3--3--3-|
 |                                             
 |GTR II
d|-------------------------------------------------|
A|-------------------------------------------------|
F|-------------------------10-10-10-10-10-10-10-10-|
C|--8--8--8--8--8--8--8--8-10-10-10-10-10-10-10-10-|
G|--8--8--8--8--8--8--8--8--8--8--8--8--8--8--8--8-|
C|--8--8--8--8--8--8--8--8-------------------------|

  GTR I,II
d|-------------------------------------------------|
A|-------------------------------------------------|
F|-------------------------------------------------|
C|--3--5--5--3--3--5--5--3--3--5--5--3--3--5--5--3-|
G|--3--5--5--3--3--5--5--3--3--5--5--3--3--5--5--3-|
C|--3--5--5--3--3--5--5--3--3--5--5--3--3--5--5--3-|

  GTR I
d|-------------------------------------------------|
A|-------------------------------------------------|
F|-------------------------------------------------|
C|--8--8--8--8--8--8--8--8--3--3--3--3--3--3--3--3-|
G|--8--8--8--8--8--8--8--8--3--3--3--3--3--3--3--3-|
C|--8--8--8--8--8--8--8--8--3--3--3--3--3--3--3--3-|
 |                                             
 |GTR II
d|-------------------------------------------------|
A|-------------------------------------------------|
F|-------------------------10-10-10-10-10-10-10-10-|
C|--8--8--8--8--8--8--8--8-10-10-10-10-10-10-10-10-|
G|--8--8--8--8--8--8--8--8--8--8--8--8--8--8--8--8-|
C|--8--8--8--8--8--8--8--8-------------------------|

  GTR I,II
d|--------------------------------------------------|
A|--------------------------------------------------|
F|--------------------------------------------------|
C|--3--5--5--3--3--5--5--3--5---5---5---5---5---5---|
G|--3--5--5--3--3--5--5--3--5---5---5---5---5---5---|
C|--3--5--5--3--3--5--5--3--5---5---5---5---5---5---|
 |                                             
 |GTR IV
d|--------------------------------------------------|
A|--------------------------------------------------|
F|--------------------------------------------------|
C|--------------------------------------------------|
G|------------------------------------Pickslide-----|
C|------------------------------------Pickslide-----|

Outro

  GTR I
d|-------------------------------------------------|
A|-------------------------------------------------|
F|-------------------------------------------------|
C|--8-----------------------3----------------------|
G|--8-----------------------3----------------------|
C|--8-----------------------3----------------------|
 |                                             
 |GTR II
d|-------------------------------------------------|
A|-------------------------------------------------|
F|-------------------------10----------------------|
C|--8----------------------10----------------------|
G|--8-----------------------8----------------------|
C|--8----------------------------------------------|
 |                                             
 |GTR IV
d|-------------------------------------------------|
A|-------------------------------------------------|
F|----------------12b12-10h12~--------------12b12--|
C|-------------------------------------------------|
G|-------------------------------------------------|
C|-------------------------------------------------|

  GTR I,II
d|-------------------------------------------------|
A|-------------------------------------------------|
F|-------------------------------------------------|
C|--5----------------------------------------------|
G|--5----------------------------------------------|
C|--5----------------------------------------------|
 |                                             
 |GTR IV
d|---------------------10--10-------10--10-------10|
A|--------------13p10----10--13p10----10--13p10----|
F|-10br--------------13-----------13-----------13--|
C|------12~----------------------------------------|
G|-------------------------------------------------|
C|-------------------------------------------------|


  GTR I
d|-------------------------------------------------|
A|-------------------------------------------------|
F|-------------------------------------------------|
C|--8-----------------------3----------------------|
G|--8-----------------------3----------------------|
C|--8----------------10-----3----------------------|
 |                                             
 |GTR II
d|-------------------------------------------------|
A|-------------------------------------------------|
F|-------------------------10----------------------|
C|--8----------------------10----------------------|
G|--8-----------------------8----------------------|
C|--8----------------10----------------------------|
 |                                             
 |GTR IV
d|-------------------------------------------------|
A|-13b---------------------------------------------|
F|----------------12b12-10h12~--------------12b12--|
C|-------------------------------------------------|
G|-------------------------------------------------|
C|-------------------------------------------------|

  GTR I,II
d|-------------------------------------------------|
A|-------------------------------------------------|
F|-------------------------------------------------|
C|--5----------------------------------------------|
G|--5----------------------------------------------|
C|--5----------------------------------------------|
 |                                             
 |GTR IV
d|-------------------------------------------------|
A|-------------------------------------------------|
F|-10br--------------------------------------------|
C|----------12~-----------------b------------------|
G|-------------------------------------------------|
C|-------------------------------------------------|

END

------------------------------------------------------------------------------
5. Just For
------------------------------------------------------------------------------

NOTE: GTR III is just GTR II with a Reverb effect.

GRT I - Drop D Tuning "Chad Kroeger" Distortion (e,B,G,D,A,D)
GTR II - Drop D Tuning "Ryan Peake" Distortion (e,B,G,D,A,D)
GTR III - Drop D Tunning "Ryan Peake" Distortion w. Reverb (e,B,G,D,A,D)

Intro

  GTR I,II
e|-------------------------|
B|-------------------------|
G|-------------------------|
D|-------------------------|
A|--x--x--x--x--x--x--x--x-|
D|--x--x--x--x--x--x--x--x-|

Main Riff

  GTR I
e|-------------------------------------------------|
B|-------------------------------------------------|
G|--9/10-10-10-10-------------12/13----12/13-------|
D|--x--x--x--x--x--------------x--x-----x--x-------|
A|--7/-8--8--8--8-----x--x--x-10/11--0-10/11--x--x-|
D|--------------------x--x--x--------0--------x--x-|
 |
 |GTR II
e|-------------------------------------------------|
B|-------------------------------------------------|
G|-------------------------------------------------|
D|--2h-3--3--3--3--------------5--6-----5--6-------|
A|--2h-3--3--3--3-----x--x--x--5--6--0--5--6--x--x-|
D|--2h-3--3--3--3-----x--x--x--5--6--0--5--6--x--x-|

  GTR I
e|-------------------------------------------------|
B|-------------------------------------------------|
G|--7/-8--8--8--8----------------------------------|
D|--x--x--x--x--x----------------------------------|
A|--5/-6--6--6--6-----x--x--x--x--x--x--x--x--x--x-|
D|--------------------x--x--x--x--x--x--x--x--x--x-|
 |
 |GTR II
e|-------------------------------------------------|
B|-------------------------------------------------|
G|-------------------------------------------------|
D|--0h-1--1--1--1----------------------------------|
A|--0h-1--1--1--1-----x--x--x--x--x--x--x--x--x--x-|
D|--0h-1--1--1--1-----x--x--x--x--x--x--x--x--x--x-|

  GTR I
e|-------------------------------------------------|
B|-------------------------------------------------|
G|--9/10-10-10-10-------------12/13----12/13-------|
D|--x--x--x--x--x--------------x--x-----x--x-------|
A|--7/-8--8--8--8-----x--x--x-10/11--0-10/11--x--x-|
D|--------------------x--x--x--------0--------x--x-|
 |
 |GTR II
e|-------------------------------------------------|
B|-------------------------------------------------|
G|-------------------------------------------------|
D|--2h-3--3--3--3--------------5--6-----5--6-------|
A|--2h-3--3--3--3-----x--x--x--5--6--0--5--6--x--x-|
D|--2h-3--3--3--3-----x--x--x--5--6--0--5--6--x--x-|

  GTR I
e|-------------------------------------------------|
B|-------------------------------------------------|
G|--7/-8--8--8--8----------------------------------|
D|--x--x--x--x--x----------------------------------|
A|--5/-6--6--6--6-----x--x--x--x--x--x--x--x--x--x-|
D|--------------------x--x--x--x--x--x--x--x--x--x-|
 |
 |GTR II
e|-------------------------------------------------|
B|-------------------------------------------------|
G|-------------------------------------------------|
D|--0h-1--1--1--1----------------------------------|
A|--0h-1--1--1--1-----x--x--x--x--x--x--x--x--x--x-|
D|--0h-1--1--1--1-----x--x--x--x--x--x--x--x--x--x-|

Pre Verse

  GTR I
e|-------------|-------------|-------------|-------------|
B|-------------|-------------|-------------|-------------|
G|-10----------|--8----------|-10----------|--8----------|
D|--x----------|--x----------|--x----------|--x----------|
A|--8----------|--6----------|--8----------|--6----------|
D|-------------|-------------|-------------|-------------|
 |
 |GTR II
e|-------------|-------------|-------------|-------------|
B|-------------|-------------|-------------|-------------|
G|-------------|-------------|-------------|-------------|
D|--3----------|--1----------|--3----------|--1----------|
A|--3----------|--1----------|--3----------|--1----------|
D|--3----------|--1----------|--3----------|--1----------|

Verse

  GTR III
e|-------------------------------------------------|
B|-------------------------------------------------|
G|--------------------------------------6----------|
D|--------5h-6--------------5----------------------|
A|-------------------------------------------------|
D|-------------------------------------------------|

  GTR III
e|-------------------------------------------------|
B|-------------------------------------------------|
G|--5----------------------------------------------|
D|-------------------------------------------------|
A|--------------6----------------------------------|
D|-------------------------------------------------|

  GTR III
e|-------------------------------------------------|
B|-------------------------------------------------|
G|--------------------------------------6----------|
D|--------5h-6--------------5----------------------|
A|-------------------------------------------------|
D|-------------------------------------------------|

  GTR III
e|-------------------------------------------------|
B|-------------------------------------------------|
G|--5----------------------------------------------|
D|--------------------------8--8--------8----------|
A|--------------6--6--6--6--------6-----------6----|
D|-------------------------------------------------|
                      .  .        .

  GTR III
e|-------------------------------------------------|
B|-------------------------------------------------|
G|--------------------------------------6----------|
D|--------5h-6--------------5----------------------|
A|-------------------------------------------------|
D|-------------------------------------------------|

  GTR III
e|-------------------------------------------------|
B|-------------------------------------------------|
G|--5----------------------------------------------|
D|-------------------------------------------------|
A|--------------6----------------------------------|
D|-------------------------------------------------|

  GTR III
e|-------------------------------------------------|
B|-------------------------------------------------|
G|-------------------------------------------------|
D|--5--5--5h-6--------------5-----------------5--5-|
A|-------------------------------------------------|
D|-------------------------------------------------|
    .  .                                      .  .

  GTR III
e|-------------------------------------------------|
B|-------------------------------------------------|
G|-------------------------------------------------|
D|--5h-6--5-----------------8--8--------8----------|
A|--------------6-----6--6--------6-----------6----|
D|-------------------------------------------------|
                      .  .        .

  GTR III
e|-------------------------------------------------|
B|-------------------------------------------------|
G|--------------------------------------6----------|
D|--------5h-6--------------5----------------------|
A|-------------------------------------------------|
D|-------------------------------------------------|

  GTR III
e|-------------------------------------------------|
B|-------------------------------------------------|
G|--5----------------------------------------------|
D|-------------------------------------------------|
A|--------------6----------------------------------|
D|-------------------------------------------------|

  GTR III
e|-------------------------------------------------|
B|-------------------------------------------------|
G|--------------------------------------6----------|
D|--------5h-6--------------5----------------------|
A|-------------------------------------------------|
D|-------------------------------------------------|

  GTR III
e|--------------3-----------------4-----3\---------|
B|-------------------------------------------------|
G|--5----------------------------------------------|
D|-------------------------------------------------|
A|-------------------------------------------------|
D|-------------------------------------------------|

  GTR III
e|-------------------------------------------------|
B|-------------------------------------------------|
G|--------------------------------------6----------|
D|--------5h-6--------------5----------------------|
A|-------------------------------------------------|
D|-------------------------------------------------|

  GTR III
e|-------------------------------------------------|
B|-------------------------------------------------|
G|--5----------------------------------------------|
D|-------------------------------------------------|
A|--------------6-----6----------------------------|
D|-------------------------------------------------|

  GTR III
e|-------------------------------------------------|
B|-------------------------------------------------|
G|-------------------------------------------------|
D|-------------------------------------------------|
A|--------8----------------------------------------|
D|-------------------------------------------------|

  GTR I,II
e|-------------------------------------------------|
B|-------------------------------------------------|
G|-------------------------------------------------|
D|-------------------------------------------------|
A|--x--x-----x-----x--x--x-----x-----x--x--x--x--x-|
D|--x--x-----x-----x--x--x-----x-----x--x--x--x--x-|

Chorus

  GTR I
e|-------------------------------------------------|
B|-------------------------------------------------|
G|-10----------13-----------8----------------------|
D|--x-----------x-----------x----------------------|
A|--8----------11-----------6----------------------|
D|-------------------------------------------------|
 |
 |GTR II
e|-------------------------------------------------|
B|-------------------------------------------------|
G|-------------------------------------------------|
D|--3-----------6-----------1----------------------|
A|--3-----------6-----------1----------------------|
D|--3-----------6-----------1----------------------|

  GTR I
e|-------------------------------------------------|
B|-------------------------------------------------|
G|--------8-----8----------------------------------|
D|--------x-----x----------------------------------|
A|--------6-----6-----x--x--x--x--x--x--x--x--x--x-|
D|--------------------x--x--x--x--x--x--x--x--x--x-|
 |
 |GTR II
e|-------------------------------------------------|
B|-------------------------------------------------|
G|-------------------------------------------------|
D|--------1-----1----------------------------------|
A|--------1-----1-----x--x--x--x--x--x--x--x--x--x-|
D|--------1-----1-----x--x--x--x--x--x--x--x--x--x-|

  GTR I
e|-------------------------------------------------|
B|-------------------------------------------------|
G|--9/10-10-10-10-------------12/13----13/15-------|
D|--x--x--x--x--x--------------x--x-----x--x-------|
A|--7/-8--8--8--8-----x--x--x-10/11--0-11/13--x--x-|
D|--------------------x--x--x--------0--------x--x-|
 |
 |GTR II
e|-------------------------------------------------|
B|-------------------------------------------------|
G|-------------------------------------------------|
D|--2h-3--3--3--3--------------5--6-----6--8-------|
A|--2h-3--3--3--3-----x--x--x--5--6--0--6--8--x--x-|
D|--2h-3--3--3--3-----x--x--x--5--6--0--6--8--x--x-|

  GTR I
e|-------------------------------------------------|
B|-------------------------------------------------|
G|--7/-8--8--8--8----------------------------------|
D|--x--x--x--x--x----------------------------------|
A|--5/-6--6--6--6-----x--x--x--x--x--x--x--x--x--x-|
D|--------------------x--x--x--x--x--x--x--x--x--x-|
 |
 |GTR II
e|-------------------------------------------------|
B|-------------------------------------------------|
G|-------------------------------------------------|
D|--0h-1--1--1--1----------------------------------|
A|--0h-1--1--1--1-----x--x--x--x--x--x--x--x--x--x-|
D|--0h-1--1--1--1-----x--x--x--x--x--x--x--x--x--x-|

  GTR I
e|-------------------------------------------------|
B|-------------------------------------------------|
G|-10----------13-----------8----------------------|
D|--x-----------x-----------x----------------------|
A|--8----------11-----------6----------------------|
D|-------------------------------------------------|
 |
 |GTR II
e|-------------------------------------------------|
B|-------------------------------------------------|
G|-------------------------------------------------|
D|--3-----------6-----------1----------------------|
A|--3-----------6-----------1----------------------|
D|--3-----------6-----------1----------------------|

  GTR I
e|-------------------------------------------------|
B|-------------------------------------------------|
G|--------8-----8----------------------------------|
D|--------x-----x----------------------------------|
A|--------6-----6-----x--x--x--x--x--x--x--x--x--x-|
D|--------------------x--x--x--x--x--x--x--x--x--x-|
 |
 |GTR II
e|-------------------------------------------------|
B|-------------------------------------------------|
G|-------------------------------------------------|
D|--------1-----1----------------------------------|
A|--------1-----1-----x--x--x--x--x--x--x--x--x--x-|
D|--------1-----1-----x--x--x--x--x--x--x--x--x--x-|

  GTR I
e|-------------------------------------------------|
B|-------------------------------------------------|
G|-10----------13-----------8----------------------|
D|--x-----------x-----------x----------------------|
A|--8----------11-----------6----------------------|
D|-------------------------------------------------|
 |
 |GTR II
e|-------------------------------------------------|
B|-------------------------------------------------|
G|-------------------------------------------------|
D|--3-----------6-----------1----------------------|
A|--3-----------6-----------1----------------------|
D|--3-----------6-----------1----------------------|

  GTR I
e|-------------------------------------------------|
B|-------------------------------------------------|
G|--------------8----------------------------------|
D|--------------x----------------------------------|
A|--------------6-----x--x--x--x--x--x-----x--x--x-|
D|--------------------x--x--x--x--x--x-----x--x--x-|
 |
 |GTR II
e|-------------------------------------------------|
B|-------------------------------------------------|
G|-------------------------------------------------|
D|--------------1----------------------------------|
A|--------------1-----x--x--x--x--x--x-----x--x--x-|
D|--------------1-----x--x--x--x--x--x-----x--x--x-|

Main Riff

Pre Verse 2

  GTR I
e|-------------|-------------|-------------|
B|-------------|-------------|-------------|
G|-10----------|--8----------|-10----------|
D|--x----------|--x----------|--x----------|
A|--8----------|--6----------|--8----------|
D|-------------|-------------|-------------|
 |
 |GTR II
e|-------------|-------------|-------------|
B|-------------|-------------|-------------|
G|-------------|-------------|-------------|
D|--3----------|--1----------|--3----------|
A|--3----------|--1----------|--3----------|
D|--3----------|--1----------|--3----------|

  GTR I
e|-------------------------------------------------|
B|-------------------------------------------------|
G|--8----------------------------------------------|
D|--x----------------------------------------------|
A|--6----------------------------------------------|
D|-------------------------------------------------|
 |
 |GTR II
e|-------------------------------------------------|
B|-------------------------------------------------|
G|-------------------------------------------------|
D|--3--1-----1-----0--3--1-----1-------------------|
A|--3--1-----1-----0--3--1-----1-----x--x--x--x--x-|
D|--3--1-----1-----0--3--1-----1-----x--x--x--x--x-|

Verse      - 1x
Chorus     - 1x
Main Riff  - 2x
Pre Verse  - 1x

Bridge

  GTR I,II
e|-------------------------------------------------|
B|-------------------------------------------------|
G|-------------------------------------------------|
D|-------------------------------------------------|
A|--------3--3--3--3--3-----------------3--3-------|
D|--------3--3--3--3--3-----------------3--3-------|
 |        .  .  .  .  .                 .  .
 |GTR III
e|-------------------------------------------------|
B|-------------------------------------------------|
G|--------------------------------------6----------|
D|--------5h-6--------------5----------------------|
A|-------------------------------------------------|
D|-------------------------------------------------|

  GTR I,II
e|-------------------------------------------------|
B|-------------------------------------------------|
G|-------------------------------------------------|
D|-------------------------------------------------|
A|--------------1--1--------------1--1-----1-----1-|
D|--------------1--1--------------1--1-----1-----1-|
 |              .  .              .  .     .     .
 |GTR III
e|-------------------------------------------------|
B|-------------------------------------------------|
G|--5----------------------------------------------|
D|--------------------------8----------------------|
A|--------------6-----6-----------6----------------|
D|-------------------------------------------------|                                     

  GTR I,II
e|-------------------------------------------------|
B|-------------------------------------------------|
G|-------------------------------------------------|
D|-------------------------------------------------|
A|--1--1--1--3--3--3--3-----------------3--3-------|
D|--1--1--1--3--3--3--3-----------------3--3-------|
 |  .  .  .  .  .  .  .                 .  .
 |GTR III
e|-------------------------------------------------|
B|-------------------------------------------------|
G|--------------------------------------6----------|
D|--------5h-6--------------5----------------------|
A|-------------------------------------------------|
D|-------------------------------------------------|

  GTR I,II
e|-------------------------------------------------|
B|-------------------------------------------------|
G|-------------------------------------------------|
D|-------------------------------------------------|
A|--3--1--1--1--1--1-------------------------------|
D|--3--1--1--1--1--1-------------------------------|
 |  .  .  .  .  .  .                        
 |GTR III
e|-------------------------------------------------|
B|-------------------------------------------------|
G|--5----------------------------------------------|
D|-------------------------------------------------|
A|--------------6----------------------------------|
D|-------------------------------------------------|

  GTR I,II
e|-------------------------------------------------|
B|-------------------------------------------------|
G|-------------------------------------------------|
D|-------------------------------------------------|
A|--------3--3--3--3--3-----------------3--3-------|
D|--------3--3--3--3--3-----------------3--3-------|
 |        .  .  .  .  .                 .  .
 |GTR III
e|-------------------------------------------------|
B|-------------------------------------------------|
G|--------------------------------------6----------|
D|--------5h-6--------------5----------------------|
A|-------------------------------------------------|
D|-------------------------------------------------|

  GTR I,II
e|-------------------------------------------------|
B|-------------------------------------------------|
G|-------------------------------------------------|
D|-------------------------------------------------|
A|--------------1--1--------------1--1-----1-----1-|
D|--------------1--1--------------1--1-----1-----1-|
 |              .  .              .  .     .     .
 |GTR III
e|-------------------------------------------------|
B|-------------------------------------------------|
G|--5----------------------------------------------|
D|--------------------------8--8--------8----------|
A|--------------6-----6--6--------6-----------6----|
D|-------------------------------------------------|
                      .  .        .

  GTR I,II
e|-------------------------------------------------|
B|-------------------------------------------------|
G|-------------------------------------------------|
D|-------------------------------------------------|
A|--1--1--1--3--3--3--3-----------------3--3-------|
D|--1--1--1--3--3--3--3-----------------3--3-------|
 |  .  .  .  .  .  .  .                 .  .
 |GTR III
e|-------------------------------------------------|
B|-------------------------------------------------|
G|--------------------------------------6----------|
D|--------5h-6--------------5----------------------|
A|-------------------------------------------------|
D|-------------------------------------------------|

  GTR I,II
e|-------------------------------------------------|
B|-------------------------------------------------|
G|-------------------------------------------------|
D|-------------------------------------------------|
A|--3--1-----1-----0--3--1-----1-----0-12\---------|
D|--3--1-----1-----0--3--1-----1-----0-12\---------|
 |  .  .     .     .  .  .     .
 |GTR III
e|-------------------------------------------------|
B|-------------------------------------------------|
G|--5----------------------------------------------|
D|-------------------------------------------------|
A|-------------------------------------------------|
D|-------------------------------------------------|

Interlude

  GTR I
e|-------------------------------------------------|
B|-------------------------------------------------|
G|-------------------------------------------------|
D|--2h-3--------3--------------5--6-----5--6-------|
A|--2h-3--3--3--3-----x--x--x--5--6--0--5--6--x--x-|
D|--2h-3--3--3--3-----x--x--x--5--6--0--5--6--x--x-|
 |        .  .                       .
 |GTR II
e|-------------------------------------------------|
B|-------------------------------------------------|
G|-------------------------------------------------|
D|--2h-3--3--3--3--------------5--6-----5--6-------|
A|--2h-3--3--3--3-----x--x--x--5--6--0--5--6--x--x-|
D|--2h-3--3--3--3-----x--x--x--5--6--0--5--6--x--x-|

  GTR I
e|-------------------------------------------------|
B|-------------------------------------------------|
G|-------------------------------------------------|
D|--0h-1--1--1--1----------------------------------|
A|--0h-1--1--1--1-----x--x--8--8--8--8--9--9--x--x-|
D|--0h-1--1--1--1-----x--x--8--8--8--8--9--9--x--x-|
 |                          .  .  .  .  .  .
 |GTR II
e|-------------------------------------------------|
B|-------------------------------------------------|
G|-------------------------------------------------|
D|--0h-1--1--1--1-----------8--8--8--8--9--9-------|
A|--0h-1--1--1--1-----x--x--8--8--8--8--9--9--x--x-|
D|--0h-1--1--1--1-----x--x--8--8--8--8--9--9--x--x-|

  GTR I
e|-------------------------------------------------|
B|-------------------------------------------------|
G|-------------------------------------------------|
D|--2h-3--------3--------------5--6-----5--6-------|
A|--2h-3--3--3--3-----x--x--x--5--6--0--5--6--x--x-|
D|--2h-3--3--3--3-----x--x--x--5--6--0--5--6--x--x-|
 |        .  .                       .
 |GTR II
e|-------------------------------------------------|
B|-------------------------------------------------|
G|-------------------------------------------------|
D|--2h-3--3--3--3--------------5--6-----5--6-------|
A|--2h-3--3--3--3-----x--x--x--5--6--0--5--6--x--x-|
D|--2h-3--3--3--3-----x--x--x--5--6--0--5--6--x--x-|

  GTR I
e|-------------------------------------------------|
B|-------------------------------------------------|
G|-------------------------------------------------|
D|--0h-1--1--1--1----------------------------------|
A|--0h-1--1--1--1-----x--x--8--8--8--8--9--9--x--x-|
D|--0h-1--1--1--1-----x--x--8--8--8--8--9--9--x--x-|
 |                          .  .  .  .  .  .
 |GTR II
e|-------------------------------------------------|
B|-------------------------------------------------|
G|-------------------------------------------------|
D|--0h-1--1--1--1-----------8--8--8--8--9--9-------|
A|--0h-1--1--1--1-----x--x--8--8--8--8--9--9--x--x-|
D|--0h-1--1--1--1-----x--x--8--8--8--8--9--9--x--x-|

  GTR I,II
e|-------------------------------------------------|
B|-------------------------------------------------|
G|-------------------------------------------------|
D|--3--------1--------6--------1--------8--8--8----|
A|--3--------1--------6--------1--------8--8--8----|
D|--3--------1--------6--------1--------8--8--8----|

  GTR I,II
e|-------------------------------------------------|
B|-------------------------------------------------|
G|-------------------------------------------------|
D|--3--------1--------6--------1--------8--8--8----|
A|--3--------1--------6--------1--------8--8--8----|
D|--3--------1--------6--------1--------8--8--8----|

  GTR I,II
e|-------------------------------------------------|
B|-------------------------------------------------|
G|-------------------------------------------------|
D|--3--------1--------6--------1--------8--8--8----|
A|--3--------1--------6--------1--------8--8--8----|
D|--3--------1--------6--------1--------8--8--8----|

  GTR I,II
e|-------------------------------------------------|
B|-------------------------------------------------|
G|-------------------------------------------------|
D|--3--------1--------6--------1--------8--8--8----|
A|--3--------1--------6--------1--------8--8--8----|
D|--3--------1--------6--------1--------8--8--8----|

Chorus
Main Riff

Outro

  GTR I
e|-------------------------------------------------|
B|-------------------------------------------------|
G|--9/10-10-10-10-------------12/13----12/13-------|
D|--x--x--x--x--x--------------x--x-----x--x-------|
A|--7/-8--8--8--8-----x--x--x-10/11--0-10/11--x--x-|
D|--------------------x--x--x--------0--------x--x-|
 |
 |GTR II
e|-------------------------------------------------|
B|-------------------------------------------------|
G|-------------------------------------------------|
D|--2h-3--3--3--3--------------5--6-----5--6-------|
A|--2h-3--3--3--3-----x--x--x--5--6--0--5--6--x--x-|
D|--2h-3--3--3--3-----x--x--x--5--6--0--5--6--x--x-|

  GTR I
e|-------------------------------------------------|
B|-------------------------------------------------|
G|--7/-8--8--8--8----------------------------------|
D|--x--x--x--x--x----------------------------------|
A|--5/-6--6--6--6-----x--x--x--x--x--x--x--x--x--x-|
D|--------------------x--x--x--x--x--x--x--x--x--x-|
 |
 |GTR II
e|-------------------------------------------------|
B|-------------------------------------------------|
G|-------------------------------------------------|
D|--0h-1--1--1--1----------------------------------|
A|--0h-1--1--1--1-----x--x--x--x--x--x--x--x--x--x-|
D|--0h-1--1--1--1-----x--x--x--x--x--x--x--x--x--x-|

  GTR I
e|-------------------------------------------------|
B|-------------------------------------------------|
G|--9/10-10-10-10-------------12/13----12/13-------|
D|--x--x--x--x--x--------------x--x-----x--x-------|
A|--7/-8--8--8--8-----x--x--x-10/11--0-10/11--x--x-|
D|--------------------x--x--x--------0--------x--x-|
 |
 |GTR II
e|-------------------------------------------------|
B|-------------------------------------------------|
G|-------------------------------------------------|
D|--2h-3--3--3--3--------------5--6-----5--6-------|
A|--2h-3--3--3--3-----x--x--x--5--6--0--5--6--x--x-|
D|--2h-3--3--3--3-----x--x--x--5--6--0--5--6--x--x-|

  GTR I
e|-------------------------------------------------|
B|-------------------------------------------------|
G|--------------------8----------------------------|
D|--------------------x----------------------------|
A|--x--x--x--x--x--x--6----------------------------|
D|--x--x--x--x--x--x-------------------------------|
 |
 |GTR II
e|-------------------------------------------------|
B|-------------------------------------------------|
G|-------------------------------------------------|
D|--------------------1----------------------------|
A|--x--x--x--x--x--x--1----------------------------|
D|--x--x--x--x--x--x--1----------------------------|

END

------------------------------------------------------------------------------
6. Hollywood
------------------------------------------------------------------------------

NOTE: The bridge and solo get kind of confusing, but if you want to play
with 2 guitars, mesh guitar 3 and 4 together and let guitar 2 play that.

GTR I - Drop C Tuning "Chad Kroeger" (d,A,F,C,G,C)
GTR II - Drop C Tuning "Ryan Peake" (d,A,F,C,G,C)
GTR III - Drop C Tuning "Wah Fill" (d,A,F,C,G,C)
GTR IV - Drop C Tuning "Solo w Wah" (d,A,F,C,G,C)

Intro

  GTR I,II
d|-------------------------------------------------|
A|-------------------------------------------------|
F|-------------------------------------------------|
C|-------------------------------------------------|
G|-12b-----r10-------12b-----r10--------x--x-------|
C|-12b-----r10-------12b-----r10--------x--x-------|

  GTR I,II
d|-------------------------------------------------|
A|-------------------------------------------------|
F|-------------------------------------------------|
C|-------------------------------------------------|
G|-12b-----r10-----5--7--5/10-10--7--5--7\---------|
C|-12b-----r10-----5--7--5/10-10--7--5--7\----0--0-|
                                              .  .

  GTR I,II
d|-------------------------------------------------|
A|-------------------------------------------------|
F|-------------------------------------------------|
C|-------------------------------------------------|
G|-12b-----r10-------12b-----r10--------x--x-------|
C|-12b-----r10-------12b-----r10--------x--x-------|

  GTR I,II
d|-------------------------------------------------|
A|-------------------------------------------------|
F|-------------------------------------------------|
C|-------------------------------------------------|
G|-12b-----r10-----5--7--5/10-10--7--5--7\---------|
C|-12b-----r10-----5--7--5/10-10--7--5--7\----0--0-|
                                              .  .
Pre Verse

  GTR I
d|-------------------------------------------------|
A|-------------------------------------------------|
F|-------------------------------------------------|
C|-------------------------------------------------|
G|--0-----------------0----------------------------|
C|--0-------10~-------0-------10~------------------|
 |
 |GTR II
d|-------------------------------------------------|
A|-------------------------------------------------|
F|-------------------------------------------------|
C|-------------------------------------------------|
G|-12b-----r10-------12b-----r10-------------------|
C|-12b-----r10-------12b-----r10-------------------|

  GTR I
d|-------------------------------------------------|
A|-------------------------------------------------|
F|-------------------------------------------------|
C|-------------------------------------------------|
G|--0--------------5--7--5/10-10--7--5--7----10----|
C|--0-------10~----5--7--5/10-10--7--5--7----10----|
 |
 |GTR II
d|-------------------------------------------------|
A|-------------------------------------------------|
F|-------------------------------------------------|
C|-------------------------------------------------|
G|-12b-----r10-----5--7--5/10-10--7--5--7----10----|
C|-12b-----r10-----5--7--5/10-10--7--5--7----10----|

  GTR I
d|-------------------------------------------------|
A|-------------------------------------------------|
F|-------------------------------------------------|
C|-------------------------------------------------|
G|--0-----------------0----------------------------|
C|--0-------10~-------0-------10~------------------|
 |
 |GTR II
d|-------------------------------------------------|
A|-------------------------------------------------|
F|-------------------------------------------------|
C|-------------------------------------------------|
G|-12b-----r10-------12b-----r10-------------------|
C|-12b-----r10-------12b-----r10-------------------|

  GTR I
d|-------------------------------------------------|
A|-------------------------------------------------|
F|-------------------------------------------------|
C|-------------------------------------------------|
G|--0--------------5--7--5/10-10--7--5--7\---------|
C|--0-------10~----5--7--5/10-10--7--5--7\---------|
 |
 |GTR II
d|-------------------------------------------------|
A|-------------------------------------------------|
F|-------------------------------------------------|
C|-------------------------------------------------|
G|-12b-----r10-----5--7--5/10-10--7--5--7\---------|
C|-12b-----r10-----5--7--5/10-10--7--5--7\---------|

Verse

  GTR I
d|-------------------------------------------------|
A|-------------------------------------------------|
F|-------------------------------------------------|
C|-------------------------------------------------|
G|-------------------------------------------------|
C|-12-12-12-10-------12-12-12-10-------------------|
 |  .  .  .  .        .  .  .  .
 |GTR II
d|-------------------------------------------------|
A|-------------------------------------------------|
F|-------------------------------------------------|
C|-------------------------------------------------|
G|-------------------------------------------------|
C|-12b-----r10-------12b-----r10-------------------|

  GTR I
d|-------------------------------------------------|
A|-------------------------------------------------|
F|-------------------------------------------------|
C|-------------------------------------------------|
G|-------------------------------------------------|
C|-12-12-12-10-----5--7--5/10-10--7--5--7~---------|
 |  .  .  .  .     .  .  .        .  .
 |GTR II
d|-------------------------------------------------|
A|-------------------------------------------------|
F|-------------------------------------------------|
C|-------------------------------------------------|
G|-------------------------------------------------|
C|-12b-----r10-----5--7--5/10-10--7--5--7~---------|

  GTR I
d|-------------------------------------------------|
A|-------------------------------------------------|
F|-------------------------------------------------|
C|-------------------------------------------------|
G|-------------------------------------------------|
C|-12-12-12-10-------12-12-12-10-------------------|
 |  .  .  .  .        .  .  .  .
 |GTR II
d|-------------------------------------------------|
A|-------------------------------------------------|
F|-------------------------------------------------|
C|-------------------------------------------------|
G|-------------------------------------------------|
C|-12b-----r10-------12b-----r10-------------------|

  GTR I
d|-------------------------------------------------|
A|-------------------------------------------------|
F|-------------------------------------------------|
C|-------------------------------------------------|
G|-------------------------------------------------|
C|-12-12-12-10-----5--7--5/10-10--7--5--7~---------|
 |  .  .  .  .     .  .  .        .  .
 |GTR II
d|-------------------------------------------------|
A|-------------------------------------------------|
F|-------------------------------------------------|
C|-------------------------------------------------|
G|-------------------------------------------------|
C|-12b-----r10-----5--7--5/10-10--7--5--7~---------|

Pre Verse
Verse

Chorus

  GTR I
d|-------------------------------------------------|
A|-------------------------------------------------|
F|-------------------------------------------------|
C|-------------------------------------------------|
G|--0-----------------0----------------------------|
C|--0-------10~-------0-------10~------------------|
 |
 |GTR II
d|-------------------------------------------------|
A|-------------------------------------------------|
F|-------------------------------------------------|
C|-------------------------------------------------|
G|-12b-----r10-------12b-----r10-------------------|
C|-12b-----r10-------12b-----r10-------------------|

  GTR I
d|-------------------------------------------------|
A|-------------------------------------------------|
F|-------------------------------------------------|
C|-------------------------------------------------|
G|--0----------------------------------------------|
C|--0-------10~------------------------------------|
 |
 |GTR II
d|-------------------------------------------------|
A|-------------------------------------------------|
F|-------------------------------------------------|
C|-------------------------------------------------|
G|-12b-----r10-------------------------------------|
C|-12b-----r10-------------------------------------|

  GTR I
d|-------------------------------------------------|
A|-------------------------------------------------|
F|-------------------------------------------------|
C|-------------------------------------------------|
G|--0-----------------0----------------------------|
C|--0-------10~-------0-------10~------------------|
 |
 |GTR II
d|-------------------------------------------------|
A|-------------------------------------------------|
F|-------------------------------------------------|
C|-------------------------------------------------|
G|-12b-----r10-------12b-----r10-------------------|
C|-12b-----r10-------12b-----r10-------------------|

  GTR I
d|-------------------------------------------------|
A|-------------------------------------------------|
F|-------------------------------------------------|
C|-------------------------------------------------|
G|--0----------------------------------------------|
C|--0-------10~------------------------------------|
 |
 |GTR II
d|-------------------------------------------------|
A|-------------------------------------------------|
F|-------------------------------------------------|
C|-------------------------------------------------|
G|-12b-----r10-------------------------------------|
C|-12b-----r10-------------------------------------|

  GTR I
d|-------------------------------------------------|
A|-------------------------------------------------|
F|-------------------------------------------------|
C|-------------------------------------------------|
G|--0-----------------0----------------------------|
C|--0-------10~-------0-------10~------------------|
 |
 |GTR II
d|-------------------------------------------------|
A|-------------------------------------------------|
F|-------------------------------------------------|
C|-------------------------------------------------|
G|-12b-----r10-------12b-----r10-------------------|
C|-12b-----r10-------12b-----r10-------------------|

  GTR I
d|-------------------------------------------------|
A|-------------------------------------------------|
F|-------------------------------------------------|
C|-------------------------------------------------|
G|--0----------------------------------------------|
C|--0-------10~------------------------------------|
 |
 |GTR II
d|-------------------------------------------------|
A|-------------------------------------------------|
F|-------------------------------------------------|
C|-------------------------------------------------|
G|-12b-----r10-------------------------------------|
C|-12b-----r10-------------------------------------|

  GTR I
d|-------------------------------------------------|
A|-------------------------------------------------|
F|-------------------------------------------------|
C|-------------------------------------------------|
G|--0-----------------0----------------------------|
C|--0-------10~-------0-------10~------------------|
 |
 |GTR II
d|-------------------------------------------------|
A|-------------------------------------------------|
F|-------------------------------------------------|
C|-------------------------------------------------|
G|-12b-----r10-------12b-----r10-------------------|
C|-12b-----r10-------12b-----r10-------------------|

  GTR I
d|-------------------------------------------------|
A|-------------------------------------------------|
F|-------------------------------------------------|
C|-------------------------------------------------|
G|--0--------------5--7--5/10-10--7--5--7\---------|
C|--0-------10~----5--7--5/10-10--7--5--7\---------|
 |
 |GTR II
d|-------------------------------------------------|
A|-------------------------------------------------|
F|-------------------------------------------------|
C|-------------------------------------------------|
G|-12b-----r10-----5--7--5/10-10--7--5--7\---------|
C|-12b-----r10-----5--7--5/10-10--7--5--7\---------|

Bridge

  GTR I
d|-------------------------------------------------|
A|-------------------------------------------------|
F|-------------------------------------------------|
C|-------------------------------------------------|
G|--0-----------------0----------------------------|
C|--0-------10~-------0-------10~------------------|
 |
 |GTR II
d|-------------------------------------------------|
A|-------------------------------------------------|
F|-------------------------------------------------|
C|-------------------------------------------------|
G|-12b-----r10-------12b-----r10-------------------|
C|-12b-----r10-------12b-----r10-------------------|
 |
 |GTR III
d|-------------------------------------------------|
A|-------------------------------------------------|
F|-------------------------------------------------|
C|-------------------------------------------------|
G|-----------------------------------7--5--5--5--7-|
C|-----------------------------------7--5--5--5--7-|

  GTR I
d|-------------------------------------------------|
A|-------------------------------------------------|
F|-------------------------------------------------|
C|-------------------------------------------------|
G|--0----------------------------------------------|
C|--0-------10~------------------------------------|
 |
 |GTR II
d|-------------------------------------------------|
A|-------------------------------------------------|
F|-------------------------------------------------|
C|-------------------------------------------------|
G|-12b-----r10-------------------------------------|
C|-12b-----r10-------------------------------------|
 |
 |GTR III
d|-------------------------------------------------|
A|-------------------------------------------------|
F|-------------------------------------------------|
C|-------------------------------------------------|
G|-----------------5--7--5/10-10--7--5--7\---------|
C|-----------------5--7--5/10-10--7--5--7\---------|

  GTR I
d|-------------------------------------------------|
A|-------------------------------------------------|
F|-------------------------------------------------|
C|-------------------------------------------------|
G|--0-----------------0----------------------------|
C|--0-------10~-------0-------10~------------------|
 |
 |GTR II
d|-------------------------------------------------|
A|-------------------------------------------------|
F|-------------------------------------------------|
C|-------------------------------------------------|
G|-12b-----r10-------12b-----r10-------------------|
C|-12b-----r10-------12b-----r10-------------------|
 |
 |GTR III
d|-------------------------------------------------|
A|-------------------------------------------------|
F|-------------------------------------------------|
C|-------------------------------------------------|
G|-----------------------------------7--5--5--5--7-|
C|-----------------------------------7--5--5--5--7-|

  GTR I
d|-------------------------------------------------|
A|-------------------------------------------------|
F|-------------------------------------------------|
C|-------------------------------------------------|
G|--0----------------------------------------------|
C|--0-------10~------------------------------------|
 |
 |GTR II
d|-------------------------------------------------|
A|-------------------------------------------------|
F|-------------------------------------------------|
C|-------------------------------------------------|
G|-12b-----r10-------------------------------------|
C|-12b-----r10-------------------------------------|
 |
 |GTR III
d|-------------------------------------------------|
A|-------------------------------------------------|
F|-------------------------------------------------|
C|-------------------------------------------------|
G|-----------------5--7--5/10-10--7--5--7\---------|
C|-----------------5--7--5/10-10--7--5--7\---------|
 |
 |GTR IV
d|-------------------------------------------------|
A|-----------------/--------------/-----------/----|
F|-----------------/--------------/-----------/----|
C|-----------------/--------------/-----------/----|
G|-------------------------------------------------|
C|-------------------------------------------------|

Guitar Solo

  GTR I
d|-------------------------------------------------|
A|-------------------------------------------------|
F|-------------------------------------------------|
C|-------------------------------------------------|
G|--0-----------------0----------------------------|
C|--0-------10~-------0-------10~------------------|
 |
 |GTR II
d|-------------------------------------------------|
A|-------------------------------------------------|
F|-------------------------------------------------|
C|-------------------------------------------------|
G|-12b-----r10-------12b-----r10-------------------|
C|-12b-----r10-------12b-----r10-------------------|
 |
 |GTR IV
d|-------------------------------------------------|
A|-------------------------------------------------|
F|-----------------------------------------5-------|
C|-16~------14-------16~------14-----5--7-----7--5-|
G|-------------------------------------------------|
C|-------------------------------------------------|
                                     .  .      

  GTR I
d|-------------------------------------------------|
A|-------------------------------------------------|
F|-------------------------------------------------|
C|-------------------------------------------------|
G|--0----------------------------------------------|
C|--0-------10~------------------------------------|
 |
 |GTR II
d|-------------------------------------------------|
A|-------------------------------------------------|
F|-------------------------------------------------|
C|-------------------------------------------------|
G|-12b-----r10-------------------------------------|
C|-12b-----r10-------------------------------------|
 |
 |GTR IV
d|-------------------------------------------------|
A|-------------------------------------------------|
F|--------------------------5--5--------------5~---|
C|-16~------14-----5--7--5--------7--5--7~---------|
G|-------------------------------------------------|
C|-------------------------------------------------|
                   .  .  .                     

  GTR I
d|-------------------------------------------------|
A|-------------------------------------------------|
F|-------------------------------------------------|
C|-------------------------------------------------|
G|--0-----------------0----------------------------|
C|--0-------10~-------0-------10~------------------|
 |
 |GTR II
d|-------------------------------------------------|
A|-------------------------------------------------|
F|-------------------------------------------------|
C|-------------------------------------------------|
G|-12b-----r10-------12b-----r10-------------------|
C|-12b-----r10-------12b-----r10-------------------|
 |
 |GTR IV
d|-------------------------------------------------|
A|-------------------------------------------------|
F|-----------------------------------------5-------|
C|-16~------14-------16~------14-----5--7-----7--5-|
G|-------------------------------------------------|
C|-------------------------------------------------|
                                     .  .      

  GTR I
d|-------------------------------------------------|
A|-------------------------------------------------|
F|-------------------------------------------------|
C|-------------------------------------------------|
G|--0----------------------------------------------|
C|--0-------10~------------------------------------|
 |
 |GTR II
d|-------------------------------------------------|
A|-------------------------------------------------|
F|-------------------------------------------------|
C|-------------------------------------------------|
G|-12b-----r10-------------------------------------|
C|-12b-----r10-------------------------------------|
 |
 |GTR IV
d|-------------------------------------------------|
A|-------------------------------------------------|
F|--------------------------5--5--------------5~---|
C|-16~------14-----5--7--5--------7--5--7~---------|
G|-------------------------------------------------|
C|-------------------------------------------------|
                   .  .  .                     

  GTR I
d|-------------------------------------------------|
A|-------------------------------------------------|
F|-------------------------------------------------|
C|-------------------------------------------------|
G|--0-----------------0----------------------------|
C|--0-------10~-------0-------10~------------------|
 |
 |GTR II
d|-------------------------------------------------|
A|-------------------------------------------------|
F|-------------------------------------------------|
C|-------------------------------------------------|
G|-12b-----r10-------12b-----r10-------------------|
C|-12b-----r10-------12b-----r10-------------------|
 |
 |GTR III
d|-------------------------------------------------|
A|-15----------------15----------------15----15----|
F|-17b---------------17b---------------17b---17b---|
C|-------------------------------------------------|
G|-------------------------------------------------|
C|-------------------------------------------------|
 |                                             
 |GTR IV
d|-------------------------------------------------|
A|-------------------------------------------------|
F|-19~------17-------19~------17-------21-19-17----|
C|-------------------------------------------------|
G|-------------------------------------------------|
C|-------------------------------------------------|

  GTR I
d|-------------------------------------------------|
A|-------------------------------------------------|
F|-------------------------------------------------|
C|-------------------------------------------------|
G|--0----------------------------------------------|
C|--0-------10~------------------------------------|
 |
 |GTR II
d|-------------------------------------------------|
A|-------------------------------------------------|
F|-------------------------------------------------|
C|-------------------------------------------------|
G|-12b-----r10-------------------------------------|
C|-12b-----r10-------------------------------------|
 |
 |GTR III
d|-------------------------------------------------|
A|-15----------------15----------------15----15----|
F|-17b---------------17b---------------17b---17b---|
C|-------------------------------------------------|
G|-------------------------------------------------|
C|-------------------------------------------------|
 |                                             
 |GTR IV
d|-------------------------------------------------|
A|-------------------------------------------------|
F|-19~------17----17-19-17-21-17-19-17-19~---------|
C|-------------------------------------------------|
G|-------------------------------------------------|
C|-------------------------------------------------|

  GTR I
d|-------------------------------------------------|
A|-------------------------------------------------|
F|-------------------------------------------------|
C|-------------------------------------------------|
G|--0-----------------0----------------------------|
C|--0-------10~-------0-------10~------------------|
 |
 |GTR II
d|-------------------------------------------------|
A|-------------------------------------------------|
F|-------------------------------------------------|
C|-------------------------------------------------|
G|-12b-----r10-------12b-----r10-------------------|
C|-12b-----r10-------12b-----r10-------------------|
 |
 |GTR III
d|-------------------------------------------------|
A|-15----------------15----------------15----15----|
F|-17b---------------17b---------------17b---17b---|
C|-------------------------------------------------|
G|-------------------------------------------------|
C|-------------------------------------------------|
 |                                             
 |GTR IV
d|----------------------17-------20-------22-------|
A|-17-17-------20----------------------------------|
F|-19b-----(19)-----(19)-----(19)-----(19)-----(19)|
C|-------------------------------------------------|
G|-------------------------------------------------|
C|-------------------------------------------------|

  GTR I
d|-------------------------------------------------|
A|-------------------------------------------------|
F|-------------------------------------------------|
C|-------------------------------------------------|
G|--0----------------------------------------------|
C|--0-------10~------------------------------------|
 |
 |GTR II
d|-------------------------------------------------|
A|-------------------------------------------------|
F|-------------------------------------------------|
C|-------------------------------------------------|
G|-12b-----r10-------------------------------------|
C|-12b-----r10-------------------------------------|
 |
 |GTR III
d|-------------------------------------------------|
A|-15----------------------------------------------|
F|-17b---------------------------------------------|
C|-------------------------------------------------|
G|-------------------------------------------------|
C|-------------------------------------------------|
 |                                             
 |GTR IV
d|-22~\--------------------------------------------|
A|-------------------------------------------------|
F|-------------------------------------------------|
C|-------------------------------------------------|
G|-------------------------------------------------|
C|-------------------------------------------------|

Bridge 2

  GTR II
d|-------------------------------------------------|
A|-------------------------------------------------|
F|-------------------------------------------------|
C|-------------------------------------------------|
G|--5--5--5--3--------5-----5--5--3----------------|
C|-------------------------------------------------|
 |  .  .  .  .        .     .  .  .
 |GTR III
d|-------------------------------------------------|
A|-------------------------------------------------|
F|-------------------------------------------------|
C|-------------------------------------------------|
G|-------------------------------------------------|
C|--------------------------------------5b---------|

  GTR II
d|-------------------------------------------------|
A|-------------------------------------------------|
F|-------------------------------------------------|
C|-------------------------------------------------|
G|--5--5--5--3-------------------------------------|
C|-----------------5--7--5/10-10--7--5--7\---------|
    .  .  .  .     .  .  .  .  .  .  .  .

  GTR II
d|-------------------------------------------------|
A|-------------------------------------------------|
F|-------------------------------------------------|
C|-------------------------------------------------|
G|--5--5--5--3--------5-----5--5--3----------------|
C|-------------------------------------------------|
 |  .  .  .  .        .     .  .  .
 |GTR III
d|-------------------------------------------------|
A|-------------------------------------------------|
F|-------------------------------------------------|
C|-------------------------------------------------|
G|-------------------------------------------------|
C|--------------------------------------5b---------|

  GTR II
d|-------------------------------------------------|
A|-------------------------------------------------|
F|-------------------------------------------------|
C|-------------------------------------------------|
G|--5--5--5--3-------------------------------------|
C|-----------------5--7--5/10-10--7--5--7\---------|
    .  .  .  .     .  .  .  .  .  .  .  .

Verse 2

  GTR II
d|-------------------------------------------------|
A|-------------------------------------------------|
F|-------------------------------------------------|
C|-------------------------------------------------|
G|--5--------3--------5--------3-------------------|
C|-------------------------------------------------|
    .        .        .        .

  GTR II
d|-------------------------------------------------|
A|-------------------------------------------------|
F|-------------------------------------------------|
C|-------------------------------------------------|
G|--5--------3-------------------------------------|
C|-------------------------------------------------|
    .        .                     

  GTR II
d|-------------------------------------------------|
A|-------------------------------------------------|
F|-------------------------------------------------|
C|-------------------------------------------------|
G|--5--------3--------5--------3-------------------|
C|-------------------------------------------------|
    .        .        .        .

  GTR I
d|-------------------------------------------------|
A|-------------------------------------------------|
F|-------------------------------------------------|
C|-------------------------------------------------|
G|------------------------------------Pickslide----|
C|------------------------------------Pickslide----|
 |
 |GTR II
d|-------------------------------------------------|
A|-------------------------------------------------|
F|-------------------------------------------------|
C|-------------------------------------------------|
G|--5--------3-------------------------------------|
C|-------------------------------------------------|
 |  .        .                    
 |GTR III
d|-------------------------------------------------|
A|--------------------3/---------------------------|
F|--------------------2/---------------------------|
C|--------------------0/---------------------------|
G|-------------------------------------------------|
C|-------------------------------------------------|

Chorus 2

  GTR I
d|-------------------------------------------------|
A|-------------------------------------------------|
F|-------------------------------------------------|
C|-------------------------------------------------|
G|--0-----------------0----------------------------|
C|--0-------10~-------0-------10~------------------|
 |
 |GTR II
d|-------------------------------------------------|
A|-------------------------------------------------|
F|-------------------------------------------------|
C|-------------------------------------------------|
G|-12b-----r10-------12b-----r10-------------------|
C|-12b-----r10-------12b-----r10-------------------|

  GTR I
d|-------------------------------------------------|
A|-------------------------------------------------|
F|-------------------------------------------------|
C|-------------------------------------------------|
G|--0----------------------------------------------|
C|--0-------10~------------------------------------|
 |
 |GTR II
d|-------------------------------------------------|
A|-------------------------------------------------|
F|-------------------------------------------------|
C|-------------------------------------------------|
G|-12b-----r10-------------------------------------|
C|-12b-----r10-------------------------------------|

  GTR I
d|-------------------------------------------------|
A|-------------------------------------------------|
F|-------------------------------------------------|
C|-------------------------------------------------|
G|--0-----------------0----------------------------|
C|--0-------10~-------0-------10~------------------|
 |
 |GTR II
d|-------------------------------------------------|
A|-------------------------------------------------|
F|-------------------------------------------------|
C|-------------------------------------------------|
G|-12b-----r10-------12b-----r10-------------------|
C|-12b-----r10-------12b-----r10-------------------|

  GTR I
d|-------------------------------------------------|
A|-------------------------------------------------|
F|-------------------------------------------------|
C|-------------------------------------------------|
G|--0--------------5--7--5/10-10--7--5--7\---------|
C|--0-------10~----5--7--5/10-10--7--5--7\---------|
 |
 |GTR II
d|-------------------------------------------------|
A|-------------------------------------------------|
F|-------------------------------------------------|
C|-------------------------------------------------|
G|-12b-----r10-----5--7--5/10-10--7--5--7\---------|
C|-12b-----r10-----5--7--5/10-10--7--5--7\---------|

  GTR I
d|-------------------------------------------------|
A|-------------------------------------------------|
F|-------------------------------------------------|
C|-------------------------------------------------|
G|--0-----------------0----------------------------|
C|--0-------10~-------0-------10~------------------|
 |
 |GTR II
d|-------------------------------------------------|
A|-------------------------------------------------|
F|-------------------------------------------------|
C|-------------------------------------------------|
G|-12b-----r10-------12b-----r10-------------------|
C|-12b-----r10-------12b-----r10-------------------|

  GTR I
d|-------------------------------------------------|
A|-------------------------------------------------|
F|-------------------------------------------------|
C|-------------------------------------------------|
G|--0----------------------------------------------|
C|--0-------10~------------------------------------|
 |
 |GTR II
d|-------------------------------------------------|
A|-------------------------------------------------|
F|-------------------------------------------------|
C|-------------------------------------------------|
G|-12b-----r10-------------------------------------|
C|-12b-----r10-------------------------------------|

  GTR I
d|-------------------------------------------------|
A|-------------------------------------------------|
F|-------------------------------------------------|
C|-------------------------------------------------|
G|--0-----------------0----------------------------|
C|--0-------10~-------0-------10~------------------|
 |
 |GTR II
d|-------------------------------------------------|
A|-------------------------------------------------|
F|-------------------------------------------------|
C|-------------------------------------------------|
G|-12b-----r10-------12b-----r10-------------------|
C|-12b-----r10-------12b-----r10-------------------|

  GTR I
d|-------------------------------------------------|
A|-------------------------------------------------|
F|-------------------------------------------------|
C|-------------------------------------------------|
G|--0--------------5--7--5/10-10--7--5--7\---------|
C|--0-------10~----5--7--5/10-10--7--5--7\---------|
 |
 |GTR II
d|-------------------------------------------------|
A|-------------------------------------------------|
F|-------------------------------------------------|
C|-------------------------------------------------|
G|-12b-----r10-----5--7--5/10-10--7--5--7\---------|
C|-12b-----r10-----5--7--5/10-10--7--5--7\---------|

END

------------------------------------------------------------------------------
7. Money Bought
------------------------------------------------------------------------------

NOTE: The bridge is a lot of tremelo and wah, just improv it, the notes are 
there.

GTR I - Drop C Tuning "Chad Kroeger" (d,A,F,C,G,C)
GTR II - Drop C Tuning "Ryan Peake" (d,A,F,C,G,C)
GTR III - Drop C Tuning "Chad Kroeger" clean w. reverb (d,A,F,C,G,C)
GTR IV - Drop C Tuning "Ryan Peake" Distortion w. reverb (d,A,F,C,G,C)
GTR V - Drop C Tuning "Chad Kroeger" Distortion w. wah (d,A,F,C,G,C)
GTR VI - Drop C Tuning "Ryan Peake" Distortion w. wah (d,A,F,C,G,C)

  GTR III
d|-------------------------------------------------|
A|-------------------------------------------------|
F|-------------------------------------------------|
C|--2--2--x--2--5--5--2--5--7--7--x--0--x--0--0--2-|
G|--2--2--x--2--5--5--2--5--7--7--x--0--x--0--0--2-|
C|--2--2--x--2--5--5--2--5--7--7--x--0--x--0--0--2-|

  GTR III
d|-------------------------------------------------|
A|-------------------------------------------------|
F|-------------------------------------------------|
C|--2--2--x--2--5--5--2--5--7--7-------------------|
G|--2--2--x--2--5--5--2--5--7--7-------------------|
C|--2--2--x--2--5--5--2--5--7--7-------------------|

  GTR III
d|-------------------------------------------------|
A|-------------------------------------------------|
F|-------------------------------------------------|
C|-----2--x--2--5--5--2--5--7--7--x--0--x--0--0--2-|
G|-----2--x--2--5--5--2--5--7--7--x--0--x--0--0--2-|
C|-----2--x--2--5--5--2--5--7--7--x--0--x--0--0--2-|

  GTR I,II
d|-------------------------------------------------|
A|-------------------------------------------------|
F|-------------------------------------------------|
C|-------------------------------------------------|
G|--x--x--x--x--x--x--x--x--x--------Pickslide-----|
C|--x--x--x--x--x--x--x--x--x--Pickslide-----------|
 |
 |GTR III
d|-------------------------------------------------|
A|-------------------------------------------------|
F|-------------------------------------------------|
C|--2--2--x--2--5--5--2--5--7----------------------|
G|--2--2--x--2--5--5--2--5--7----------------------|
C|--2--2--x--2--5--5--2--5--7----------------------|
 |
 |GTR IV
d|-------------------------------------------------|
A|----------------------------15-------------------|
F|-------------------------------14-12-14/16-------|
C|---------------------------------------------/14~|
G|-------------------------------------------------|
C|-------------------------------------------------|

Main Riff

  GTR I,II
d|-------------------------------------------------|
A|-------------------------------------------------|
F|-------------------------------------------------|
C|--2--2--x--2--5--5--2--5--7--7--x--0--x--0--0--2-|
G|--2--2--x--2--5--5--2--5--7--7--x--0--x--0--0--2-|
C|--2--2--x--2--5--5--2--5--7--7--x--0--x--0--0--2-|

  GTR I,II
d|-------------------------------------------------|
A|-------------------------------------------------|
F|-------------------------------------------------|
C|--2--2--x--2--5--5--2--5--7--7-------------------|
G|--2--2--x--2--5--5--2--5--7--7-------------------|
C|--2--2--x--2--5--5--2--5--7--7-----------7br7b---|

  GTR I,II
d|-------------------------------------------------|
A|-------------------------------------------------|
F|-------------------------------------------------|
C|-----2--x--2--5--5--2--5--7--7--x--0--x--0--0--2-|
G|-----2--x--2--5--5--2--5--7--7--x--0--x--0--0--2-|
C|-----2--x--2--5--5--2--5--7--7--x--0--x--0--0--2-|

  GTR I,II
d|-------------------------------------------------|
A|-------------------------------------------------|
F|-------------------------------------------------|
C|--2--2--x--2--5--5--2--5--7--7-------------------|
G|--2--2--x--2--5--5--2--5--7--7-------------------|
C|--2--2--x--2--5--5--2--5--7--7-------------------|
 |
 |GTR IV
d|-------------------------------------------------|
A|-------------------------------------------------|
F|---------------------------/15-14--x-14--xx-12p9~|
C|-------------------------------------------------|
G|-------------------------------------------------|
C|-------------------------------------------------|

Verse

  GTR I,II
d|-------------|-------------|-------------|
A|-------------|-------------|-------------|
F|-------------|-------------|-------------|
C|----BASS-----|----BASS-----|----BASS-----|
G|-------------|-------------|-------------|
C|-------------|-------------|-------------|

  GTR IV
d|-------------------------------------------------|
A|-------------------------------------------------|
F|-------------------------------------------------|
C|--------------------------7--7-----7-----7br7--5-|
G|-----7-----7-10-10--7-10-------------------------|
C|-------------------------------------------------|
       .     .  .  .  .  .  .  .                  

  GTR III
d|-------------------------------------------------|
A|-------------------------------------------------|
F|-------------------------------------------------|
C|--2--2-----2--5--5--2--5--7--7-----0-----0--0--2-|
G|--2--2-----2--5--5--2--5--7--7-----0-----0--0--2-|
C|--2--2-----2--5--5--2--5--7--7-----0-----0--0--2-|

  GTR III
d|-------------------------------------------------|
A|-------------------------------------------------|
F|-------------------------------------------------|
C|--2--2-----2--5--5--2--5--7--7----------------0h2|
G|--2--2-----2--5--5--2--5--7--7-------------------|
C|--2--2-----2--5--5--2--5--7--7-------------------|

  GTR III
d|-------------------------------------------------|
A|-------------------------------------------------|
F|-------------------------------------------------|
C|--2--2-----2--5--5--2--5--7--7-----0-----0--0--2-|
G|--2--2-----2--5--5--2--5--7--7-----0-----0--0--2-|
C|--2--2-----2--5--5--2--5--7--7-----0-----0--0--2-|

  GTR I
d|-------------------------------------------------|
A|----------------------------15b------------------|
F|----------------------------15b------------------|
C|-------------------------------------------------|
G|-------------------------------------------------|
C|-------------------------------------------------|
 |
 |GTR II
d|-------------------------------------------------|
A|-------------------------------------------------|
F|-------------------------------------------------|
C|-------------------------------------------------|
G|--------------------------------------Pickslide--|
C|--------------------------------------Pickslide--|
 |
 |GTR III
d|-------------------------------------------------|
A|-------------------------------------------------|
F|-------------------------------------------------|
C|--2--2--x--2--5--5--2--5--7----------------------|
G|--2--2--x--2--5--5--2--5--7----------------------|
C|--2--2--x--2--5--5--2--5--7----------------------|

Chorus

  GTR I,II
d|-------------------------------------------------|
A|-------------------------------------------------|
F|-------------------------------------------------|
C|--2--2-----2--5--5--2--5--7--7-----0-----0--0-0h2|
G|--2--2-----2--5--5--2--5--7--7-----0-----0--0----|
C|--2--2-----2--5--5--2--5--7--7-----0-----0--0----|

  GTR I,II
d|-------------------------------------------------|
A|-------------------------------------------------|
F|-------------------------------------------------|
C|--2--2-----2--5--5--2--5--7--7-----0-----0--0-0h2|
G|--2--2-----2--5--5--2--5--7--7-----0-----0--0----|
C|--2--2-----2--5--5--2--5--7--7-----0-----0--0----|

  GTR I,II
d|-------------------------------------------------|
A|-------------------------------------------------|
F|-------------------------------------------------|
C|--2--2-----2--5--5--2--5--7--7-----0-----0--0-0h2|
G|--2--2-----2--5--5--2--5--7--7-----0-----0--0----|
C|--2--2-----2--5--5--2--5--7--7-----0-----0--0----|

  GTR I,II
d|-------------------------------------------------|
A|-------------------------------------------------|
F|-------------------------------------------------|
C|--2--2-----2--5--5--2--5--7--7-------------------|
G|--2--2-----2--5--5--2--5--7--7-------------------|
C|--2--2-----2--5--5--2--5--7--7-----------7br7b---|

Verse 2

  GTR I,II
d|-------------|
A|-------------|
F|-------------|
C|----BASS-----|
G|-------------|
C|-------------|

  GTR IV
d|--------------0-----------------0----------------|
A|--5-----------------5----------------------------|
F|--------2-----------------2----------------------|
C|-------------------------------------------------|
G|-------------------------------------------------|
C|-------------------------------------------------|

  GTR I,II
d|-------------|
A|-------------|
F|-------------|
C|----BASS-----|
G|-------------|
C|-------------|

  GTR IV
d|-------------------------------------------------|
A|-------------------------------------------------|
F|-------------------------------------------------|
C|--------------------------7--7-----7-----7br7--5-|
G|-----7-----7-10-10--7-10-------------------------|
C|-------------------------------------------------|
                                                  
  GTR III
d|-------------------------------------------------|
A|-------------------------------------------------|
F|-------------------------------------------------|
C|--2--2-----2--5--5--2--5--7--7-----0-----0--0--2-|
G|--2--2-----2--5--5--2--5--7--7-----0-----0--0--2-|
C|--2--2-----2--5--5--2--5--7--7-----0-----0--0--2-|

  GTR III
d|-------------------------------------------------|
A|-------------------------------------------------|
F|-------------------------------------------------|
C|--2--2-----2--5--5--2--5--7--7----------------0h2|
G|--2--2-----2--5--5--2--5--7--7-------------------|
C|--2--2-----2--5--5--2--5--7--7-------------------|

  GTR III
d|-------------------------------------------------|
A|-------------------------------------------------|
F|-------------------------------------------------|
C|--2--2-----2--5--5--2--5--7--7-----0-----0--0--2-|
G|--2--2-----2--5--5--2--5--7--7-----0-----0--0--2-|
C|--2--2-----2--5--5--2--5--7--7-----0-----0--0--2-|

  GTR I
d|-------------------------------------------------|
A|----------------------------15b------------------|
F|----------------------------15b------------------|
C|-------------------------------------------------|
G|--------------------x--x-------------------------|
C|--------------------x--x-------------------------|
 |
 |GTR II
d|-------------------------------------------------|
A|-------------------------------------------------|
F|-------------------------------------------------|
C|-------------------------------------------------|
G|--------------------------------------Pickslide--|
C|--------------------------------------Pickslide--|
 |
 |GTR III
d|-------------------------------------------------|
A|-------------------------------------------------|
F|-------------------------------------------------|
C|--2--2--x--2--5--5--2--5--7----------------------|
G|--2--2--x--2--5--5--2--5--7----------------------|
C|--2--2--x--2--5--5--2--5--7----------------------|

Chorus

Chorus 2

  GTR I,II
d|-------------------------------------------------|
A|-------------------------------------------------|
F|-------------------------------------------------|
C|--2--2-----2--5--5--2--5--7--7-----0-----0--0-0h2|
G|--2--2-----2--5--5--2--5--7--7-----0-----0--0----|
C|--2--2-----2--5--5--2--5--7--7-----0-----0--0----|
 |
 |GTR IV
d|-------------------------------------------------|
A|--------------3--3--------------3----------------|
F|--------5-----------------5----------------------|
C|--5-----------------5----------------------------|
G|-------------------------------------------------|
C|-------------------------------------------------|

  GTR I,II
d|-------------------------------------------------|
A|-------------------------------------------------|
F|-------------------------------------------------|
C|--2--2-----2--5--5--2--5--7--7-----0-----0--0-0h2|
G|--2--2-----2--5--5--2--5--7--7-----0-----0--0----|
C|--2--2-----2--5--5--2--5--7--7-----0-----0--0----|
 |
 |GTR IV
d|-------------------------------------------------|
A|--------------3--3--------------3----------------|
F|--------5-----------------5----------------------|
C|--5-----------------5----------------------------|
G|-------------------------------------------------|
C|-------------------------------------------------|

  GTR I,II
d|-------------------------------------------------|
A|-------------------------------------------------|
F|-------------------------------------------------|
C|--2--2-----2--5--5--2--5--7--7-----0-----0--0-0h2|
G|--2--2-----2--5--5--2--5--7--7-----0-----0--0----|
C|--2--2-----2--5--5--2--5--7--7-----0-----0--0----|
 |
 |GTR IV
d|-------------------------------------------------|
A|--------------3--3--------------3----------------|
F|--------5-----------------5----------------------|
C|--5-----------------5----------------------------|
G|-------------------------------------------------|
C|-------------------------------------------------|

  GTR I,II
d|-------------------------------------------------|
A|-------------------------------------------------|
F|-------------------------------------------------|
C|--2--2-----2--5--5--2--5--7--7-------------------|
G|--2--2-----2--5--5--2--5--7--7-------------------|
C|--2--2-----2--5--5--2--5--7--7-----------7br7b---|
 |
 |GTR IV
d|-------------------------------------------------|
A|--------------3--3--------------3----------------|
F|--------5-----------------5----------------------|
C|--5-----------------5----------------------------|
G|-------------------------------------------------|
C|-------------------------------------------------|

Bridge

  GTR V
d|-------------------------------------------------|
A|-------------------------------------------------|
F|---/15~------------------------------------------|
C|-------------------------------------------------|
G|-------------------------------------------------|
C|-------------------------------------------------|
 |
 |GTR VI
d|-------------------------------------------------|
A|-------------------------------------------------|
F|-------------------------------------------------|
C|-------------------------------------------------|
G|--2--2-----2--5--5--2--5--7--7-------------------|
C|--2--2-----2--5--5--2--5--7--7-------------------|
    .  .     .  .  .  .  .  .  .

  GTR V
d|-------------------------------------------------|
A|-------------------------------------------------|
F|---15~------------------------/14~---------------|
C|-------------------------------------------------|
G|-------------------------------------------------|
C|-------------------------------------------------|
 |
 |GTR VI
d|-------------------------------------------------|
A|-------------------------------------------------|
F|-------------------------------------------------|
C|-------------------------------------------------|
G|--2--2-----2--5--5--2--5--7--7-------------------|
C|--2--2-----2--5--5--2--5--7--7-------------------|
    .  .     .  .  .  .  .  .  .

  GTR V
d|-------------------------------------------------|
A|-------------------------------------------------|
F|-------------------------------------------------|
C|--------------------------------7b~--------------|
G|-------------------------------------------------|
C|-------------------------------------------------|
 |
 |GTR VI
d|-------------------------------------------------|
A|-------------------------------------------------|
F|-------------------------------------------------|
C|-------------------------------------------------|
G|--2--2-----2--5--5--2--5--7--7-------------------|
C|--2--2-----2--5--5--2--5--7--7-------------------|
    .  .     .  .  .  .  .  .  .

  GTR VI
d|-------------------------------------------------|
A|-------------------------------------------------|
F|-------------------------------------------------|
C|-------------------------------------------------|
G|--2--2-----2--5--5--2--5--7--7-------------------|
C|--2--2-----2--5--5--2--5--7--7-------------------|
    .  .     .  .  .  .  .  .  .

Verse
Chorus
Chorus 2

END

------------------------------------------------------------------------------
8. Where Do I Hide
------------------------------------------------------------------------------

NOTE: I could not figure out all of the solo, but what I did is there.

GTR I - Standard Drop B Tuning "Chad Kroeger" (e,B,G,D,A,B)
GTR II - Standard Drop B Tuning "Ryan Peake" (e,B,G,D,A,B)
GTR III - Standard Drop B Tuning "Solo Guitar" (e,B,G,D,A,B)

Intro

  GTR I,II
e|-------------------------------------------------|
B|-------------------------------------------------|
G|-------------------------------------------------|
D|-------------------------------------------------|
A|-------------------------------------------------|
B|/12-------12-10-12-15~------15~------15-12-10-12-|
                                           .  .  .

  GTR I,II
e|-------------------------------------------------|
B|-------------------------------------------------|
G|-------------------------------------------------|
D|-------------------------------------------------|
A|-------------------------------------------------|
B|/17~------15-17b--r17~------15-12~---12-----0-10-|
                                              .  .

  GTR I,II
e|-------------------------------------------------|
B|-------------------------------------------------|
G|-------------------------------------------------|
D|-------------------------------------------------|
A|-----------------------------------------------0-|
B|/12-------12-10-12-15~------15~------15\----0----|
                                              .   

  GTR I,II
e|-------------------------------------------------|
B|-------------------------------------------------|
G|--2--2--------------2--2-----2-------------------|
D|--2--2--------------2--2-----2-------------------|
A|--0--0--------------0--0-----0-------------------|
B|-------------------------------------------------|

Chorus

  GTR I,II
e|-------------------------------------------------|
B|-------------------------------------------------|
G|--4-----------4p----2--------2--------2----------|
D|--4-----------4p----2--------2--------2----------|
A|--2--------0--2p----0--------0--------0----------|
B|--------------------------------------------0--0-|
                                              .  .

  GTR I,II
e|-------------------------------------------------|
B|-------------------------------------------------|
G|--------------------------------------4----------|
D|--------------------------------------4----------|
A|--7--------5-/8-----7--------5--2-----2----------|
B|--5--------3-/6-----5--------3--0-----------0--0-|
                                              .  .

  GTR I,II
e|-------------------------------------------------|
B|-------------------------------------------------|
G|--4-----------4p----2--------2--------2----------|
D|--4-----------4p----2--------2--------2----------|
A|--2--------0--2p----0--------0--------0----------|
B|--------------------------------------------0--0-|
                                              .  .

  GTR I,II
e|-------------------------------------------------|
B|-------------------------------------------------|
G|--------------------------------------4----------|
D|--------------------------------------4----------|
A|--7--------5-/8-----7--------5--2-----2----------|
B|--5--------3-/6-----5--------3--0-----------0--0-|
                                              .  .

Post Chorus

  GTR I,II
e|-------------------------------------------------|
B|-------------------------------------------------|
G|--4-----------------4----------------------------|
D|--4-----------------4----------------------------|
A|--2--------5p-2--0--2----------------------------|
B|-----3--0----------------------------------------|
       .  .

  GTR I,II
e|-------------------------------------------------|
B|-------------------------------------------------|
G|--4-----------------4----------------------------|
D|--4-----------------4----------------------------|
A|--2--------5p-2--0--2----------------------------|
B|-----3p-0-----------------------0--0-----0-----0-|
           
  GTR I,II
e|-------------------------------------------------|
B|-------------------------------------------------|
G|--4-----------------4----------------------------|
D|--4-----------------4----------------------------|
A|--2--------5p-2--0--2----------------------------|
B|-----3p-0----------------------------------------|

  GTR I,II
e|-------------------------------------------------|
B|-----------------------------------------3-------|
G|--4-----------------4--------------------2-------|
D|--4-----------------4--------------------0-------|
A|--2--------5p-2--0--2--------------------0-------|
B|-----3p-0----------------------------------------|

Verse

  GTR I,II
e|-------------------------------------------------|
B|-------------------------------------------------|
G|--4-----------------4----------------------------|
D|--4-----------------4----------------------------|
A|--2--------5p-2--0--2----------------------------|
B|-----3--0----------------------------------------|

  GTR I,II
e|-------------------------------------------------|
B|-------------------------------------------------|
G|--4-----------------4----------------------------|
D|--4-----------------4----------------------------|
A|--2--------5p-2--0--2----------------------------|
B|-----3--0----------------------------------------|

  GTR I,II
e|-------------------------------------------------|
B|-------------------------------------------------|
G|--4-----------------4----------------------------|
D|--4-----------------4----------------------------|
A|--2--------5p-2--0--2----------------------------|
B|-----3--0----------------------------------------|

  GTR I,II
e|-------------------------------------------------|
B|-----------------------------------------3-------|
G|--4-----------------4--------------------2-------|
D|--4-----------------4--------------------0-------|
A|--2--------5p-2--0--2--------------------0-------|
B|-----3p-0----------------------------------------|

Verse 2

  GTR I,II
e|-------------------------------------------------|
B|-------------------------------------------------|
G|--4-----------------4----------------------------|
D|--4-----------------4----------------------------|
A|--2--------5p-2--0--2----------------------------|
B|-----3--0-----------------0--0--0--0--0--0--0--0-|
                            .  .  .  .  .  .  .  .

  GTR I,II
e|-------------------------------------------------|
B|-------------------------------------------------|
G|--4-----------------4----------------------------|
D|--4-----------------4----------------------------|
A|--2--------5p-2--0--2----------------------------|
B|-----3--0--------------------0--0--------0--0----|
                               .           .      

  GTR I,II
e|-------------------------------------------------|
B|-------------------------------------------------|
G|--4-----------------4----------------------------|
D|--4-----------------4----------------------------|
A|--2--------5p-2--0--2----------------------------|
B|-----3--0-----------------0--0--0--0--0--0--0--0-|
                            .  .  .  .  .  .  .  .

  GTR I,II
e|-------------------------------------------------|
B|--------------------------------------3----------|
G|--4-----------------4-----------------2----------|
D|--4-----------------4-----------------0----------|
A|--2--------5p-2--0--2-----------x--x--0----------|
B|-----3p-0---------------/12\----x--x-------------|

Chorus       - 1x
Post Chorus  - 1x
Verse        - 1x
Verse 2      - 1x
Chorus       - 2x

Bridge

  GTR I
e|-------------------------------------------------|
B|-------------------------------------------------|
G|--------------------------------------7--4-------|
D|--------------------------------------7--4-------|
A|--------------------------------------5--2-------|
B|-------------------------------------------------|
 |
 |GTR II
e|-------------------------------------------------|
B|-------------------------------------------------|
G|--------------------------------------7--4-------|
D|--------------------------------------7--4-------|
A|--2--------2--------2--------2--------5--2-------|
B|-----3p-0-----3p-0-----3p-0-----3p-0-------------|
    .  .  .  .  .  .  .  .  .  .  .  .

  GTR I
e|-------------------------------------------------|
B|-------------------------------------------------|
G|--------------------------------------7--4-------|
D|--------------------------------------7--4-------|
A|--------------------------------------5--2-------|
B|-------------------------------------------------|
 |
 |GTR II
e|-------------------------------------------------|
B|-------------------------------------------------|
G|--------------------------------------7--4-------|
D|--------------------------------------7--4-------|
A|--2--------2--------2--------2--------5--2-------|
B|-----3p-0-----3p-0-----3p-0-----3p-0-------------|
    .  .  .  .  .  .  .  .  .  .  .  .

Intro  - 1x

Guitar Solo

  GTR III
e|-------------------------------------------------|
B|-------------------------------------------------|
G|--------------------------------------7~---------|
D|--7~----------------9~---------------------------|
A|-------------------------------------------------|
B|-------------------------------------------------|

e|-------------------------------------------------|
B|-------------------------------------------------|
G|--------9~-------------7--9/10--9p-7--9p-7-------|
D|-------------------------------------------------|
A|-------------------------------------------------|
B|-------------------------------------------------|

e|-------------------------------------------------|
B|-------------------------------------------------|
G|-----x--7----------------------------------------|
D|-----------x--x--9-----x-----7-------------------|
A|--------------------------------9p-8--7\-5--7p-5-|
B|-------------------------------------------------|

e|-------------------------------------------------|
B|-------------------------------------------------|
G|--------------7--------------7--------------7~---|
D|-----------7-----9p-7--9~-------9p-7--9~---------|
A|--7h-8h-9----------------------------------------|
B|-------------------------------------------------|

e|-------------------------------------------------|
B|-------------10----------------10----10----12-10-|
G|--------9/11--------x--x--9/11----11----11-------|
D|-------------------------------------------------|
A|-------------------------------------------------|
B|-------------------------------------------------|

e|-------------------10----12-12-12-10/13----10----|
B|-12p10-12p10-12p10----10-------------------------|
G|-------------------------------------------------|
D|-------------------------------------------------|
A|-------------------------------------------------|
B|-------------------------------------------------|

e|-------------------------------------------------|
B|-------------------------------------------------|
G|-------------------------------------------------|
D|-------------------------------------------------|
A|-------------------------------------------------|
B|-------------------------------------------------|

e|-------------------------------------------------|
B|-------------------------------------------------|
G|-------------------------------------------------|
D|-------------------------------------------------|
A|-------------------------------------------------|
B|-------------------------------------------------|

GTR I,II play Chorus 2x

Final Solo Bar

  GTR I,II
e|-------------------------------------------------|
B|-------------------------------------------------|
G|--------------------4----------------------------|
D|--------------------4----------------------------|
A|--------------------2----------------------------|
B|-15\-------0-----0-------------------------------|
 |           .     .
 |GTR III
e|-------------------------------------------------|
B|-------------------------------------------------|
G|-------------------------------------------------|
D|-------------------------------------------------|
A|-------------------------------------------------|
B|-------------------------------------------------|

Guitar Break

  GTR I,II
e|-------------------------|-------------------------|
B|-------------------------|-------------------------|
G|-------------------------|-------------------------|
D|-------------------------|-------------------------|
A|-------------------------|-------------------------|
B|-------------------------|-------------------------|

  GTR I,II
e|-------------------------------------------------|
B|-------------------------------------------------|
G|-------------------------------------------------|
D|--------------------------x--x--x--x--x--x--x--x-|
A|--------------------------x--x--x--x--x--x--x--x-|
B|--------------------------x--x--x--x--x--x--x--x-|

Verse 2      - 1x
Chorus       - 2x

Outro

  GTR I,II
e|-------------------------------------------------|
B|-------------------------------------------------|
G|--4--------4--4-----2--------2--------2----------|
D|--4--------4--4-----2--------2--------2----------|
A|--2--------2--2-----0--------0--------0----------|
B|--------------------------------------------0--0-|
                                              .  .

  GTR I,II
e|-------------------------------------------------|
B|-------------------------------------------------|
G|-------------------------------------------------|
D|-------------------------------------------------|
A|--7--------5-/8-----7--------5--2----------------|
B|--5--------3-/6-----5--------3--0----------------|

END

------------------------------------------------------------------------------
9. Hangnail
------------------------------------------------------------------------------

GTR I - Standard Drop B Tuning "Chad Kroeger" (e,B,G,D,A,B)
GTR II - Standard Drop B Tuning "Ryan Peake" (e,B,G,D,A,B)

Intro

  GTR I
e|-------------------------------------------------|
B|-------------------------------------------------|
G|-------------------------------------------------|
D|-------------------------------------------------|
A|-------------------------------------------------|
B|/12-----0-----------9-10-----9-10--9-10--9-10/14-|
                      .        .

  GTR I
e|-------------------------------------------------|
B|-------------------------------------------------|
G|-------------------------------------------------|
D|-------------------------------------------------|
A|-------------------------------------------------|
B|-12----12\----------9-10-----9-10--9-10--9-10/17-|
                               .

  GTR I
e|-------------------------------------------------|
B|-------------------------------------------------|
G|-------------------------------------------------|
D|-------------------------------------------------|
A|-------------------------------------------------|
B|-15----15\----------9-10-----9-10--9-10--9-10/12-|
                      .        .

  GTR I
e|-------------------------------------------------|
B|-------------------------------------------------|
G|--------9--------7-------------------------------|
D|--------9--------7-------------------------------|
A|--------7--------5-------------------------------|
B|--0----------------------10--------9-------10----|
 |
 |GTR II
e|-------------------------------------------------|
B|-------------------------------------------------|
G|--------9--------7-------------------------------|
D|--------9--------7-------------------------------|
A|--------7--------5-------------------------------|
B|-------------------------10--------9-------10----|

Main Riff

  GTR I,II
e|-------------------------------------------------|
B|-------------------------------------------------|
G|-------------------------------------------------|
D|-------------------------------------------------|
A|-------------------------------------------------|
B|/12-----0-----------9-10-----9-10--9-10--9-10/14-|
                      .        .

  GTR I,II
e|-------------------------------------------------|
B|-------------------------------------------------|
G|-------------------------------------------------|
D|-------------------------------------------------|
A|-------------------------------------------------|
B|-12----12\----------9-10-----9-10--9-10--9-10/17-|
                               .

  GTR I,II
e|-------------------------------------------------|
B|-------------------------------------------------|
G|-------------------------------------------------|
D|-------------------------------------------------|
A|-------------------------------------------------|
B|-15----15\----------9-10-----9-10--9-10--9-10/12-|
                      .        .

  GTR I    
e|-------------------------------------------------|
B|-------------------------------------------------|
G|--------9--------7-------------------------------|
D|--------9--------7-------------------------------|
A|--------7--------5-------------------------------|
B|--0----------------------10--------9-------10----|
 |
 |GTR II
e|-------------------------------------------------|
B|-------------------------------------------------|
G|--------9--------7-------------------------------|
D|--------9--------7-------------------------------|
A|--------7--------5-------------------------------|
B|--0----------------------10--------9-------10/12-|


Verse

  GTR II
e|-------------------------------------------------|
B|-------------------------------------------------|
G|-------------------------------------------------|
D|-----------------------------4-----------6-------|
A|--------------------------5-----5-----7-----7----|
B|-----0-----------0--0--3-----------5---------/15-|
                   .  .  .  .        .  .      

  GTR II
e|-------------------------------------------------|
B|-------------------------------------------------|
G|-------------------------------------------------|
D|-----------------------------4-----------6-------|
A|--------------------------5-----5-----7-----7----|
B|-----0-----------0--0--3-----------5---------/10-|
                   .  .  .  .        .  .      

  GTR II
e|-------------------------------------------------|
B|-------------------------------------------------|
G|-------------------------------------------------|
D|-----------------------------4-----------6-------|
A|--------------------------5-----5-----7-----7----|
B|-----0-----------0--0--3-----------5-------------|
                   .  .  .  .        .  .      

  GTR II
e|-------------------------------------------------|
B|-------------------------------------------------|
G|-------------------------------------------------|
D|----11----11----11----------10-----------9-------|
A|----12----12----12----------11----------10-------|
B|----10----10----10-----------9-----------8---/12-|

  GTR II
e|-------------------------------------------------|
B|-------------------------------------------------|
G|-------------------------------------------------|
D|-----------------------------4-----------6-------|
A|--------------------------5-----5-----7-----7----|
B|-----0-----------0--0--3-----------5---------/15-|
                   .  .  .  .        .  .      

  GTR II
e|-------------------------------------------------|
B|-------------------------------------------------|
G|-------------------------------------------------|
D|-----------------------------4-----------6-------|
A|--------------------------5-----5-----7-----7----|
B|-----0-----------0--0--3-----------5---------/10-|
                   .  .  .  .        .  .      

  GTR II
e|-------------------------------------------------|
B|-------------------------------------------------|
G|-------------------------------------------------|
D|-----------------------------4-----------6-------|
A|--------------------------5-----5-----7-----7----|
B|-----0-----------0--0--3-----------5-------------|
                   .  .  .  .        .  .      

  GTR II
e|-------------------------------------------------|
B|-------------------------------------------------|
G|-------------------------------------------------|
D|----11----11----11----------10-----------9\------|
A|----12----12----12----------11----------10\------|
B|----10----10----10-----------9-----------8\------|

Pre Chorus

  GTR I
e|-------------------------------------------------|
B|-------------------------------------------------|
G|--------------------------7----------------------|
D|--------------------------7----------------------|
A|--------------------------5----------------------|
B|-------------------------------------------------|
 |
 |GTR II
e|-------------------------------------------------|
B|-------------------------------------------------|
G|(-9\)--------------------------------------------|
D|(10\)--------------------------------------------|
A|(-8\)--------------------------------------------|
B|-------------------------------------------------|

  GTR I
e|-------------------------------------------------|
B|-------------------------------------------------|
G|-------------------------------------------------|
D|-------------------------------------------------|
A|--7----------------------------------------------|
B|--5----------------------------------------------|

  GTR I
e|-------------------------------------------------|
B|-------------------------------------------------|
G|--4-----------------------7----------------------|
D|--4-----------------------7----------------------|
A|--2-----------------------5----------------------|
B|-------------------------------------------------|

  GTR I
e|-------------------------------------------------|
B|-------------------------------------------------|
G|-------------------------------------------------|
D|-------------------------------------------------|
A|--7----------------------------------------------|
B|--5----------------------------------------------|
 |
 |GTR II
e|-------------------------------------------------|
B|-------------------------------------------------|
G|-------------------------------------------------|
D|-------------------------------------------------|
A|--------x-----x-----x--x-----x-----x--x--x--x--x-|
B|--------x-----x-----x--x-----x-----x--x--x--x--x-|

Chorus

  GTR I,II
e|-------------------------------------------------|
B|-------------------------------------------------|
G|--4-----4-----4-----4----------------------------|
D|--4-----4-----4-----4----------------------------|
A|--2-----2-----2-----2-----5-----5-----5-----5----|
B|--------------------------3-----3-----3-----3----|

  GTR I,II
e|-------------------------------------------------|
B|-------------------------------------------------|
G|-------------------------------------------------|
D|-------------------------------------------------|
A|--7-----7-----7-----7-----7-----7-----7--5-------|
B|--5-----5-----5-----5-----5-----5-----5--3-------|

  GTR I,II
e|-------------------------------------------------|
B|-------------------------------------------------|
G|--4-----4-----4-----4----------------------------|
D|--4-----4-----4-----4----------------------------|
A|--2-----2-----2-----2-----5-----5-----5-----5----|
B|--------------------------3-----3-----3-----3----|

  GTR I,II
e|-------------------------------------------------|
B|-------------------------------------------------|
G|-------------------------------------------------|
D|-------------------------------------------------|
A|--7-----7-----7-----7-----7-----7-----7-----7----|
B|--5-----5-----5-----5-----5-----5-----5-----5----|

  GTR I,II
e|-------------------------------------------------|
B|-------------------------------------------------|
G|-------------------------------------------------|
D|----11----11----11----------10-----------9-------|
A|----12----12----12----------11----------10-------|
B|----10----10----10-----------9-----------8-------|

Main Riff
Verse
Pre Chorus

Chorus 2

  GTR I,II
e|-------------------------------------------------|
B|-------------------------------------------------|
G|--4-----4-----4-----4----------------------------|
D|--4-----4-----4-----4----------------------------|
A|--2-----2-----2-----2-----5-----5-----5-----5----|
B|--------------------------3-----3-----3-----3----|

  GTR I,II
e|-------------------------------------------------|
B|-------------------------------------------------|
G|-------------------------------------------------|
D|-------------------------------------------------|
A|--7-----7-----7-----7-----7-----7-----7--5-------|
B|--5-----5-----5-----5-----5-----5-----5--3-------|

  GTR I,II
e|-------------------------------------------------|
B|-------------------------------------------------|
G|--4-----4-----4-----4----------------------------|
D|--4-----4-----4-----4----------------------------|
A|--2-----2-----2-----2-----5-----5-----5-----5----|
B|--------------------------3-----3-----3-----3----|

  GTR I,II
e|-------------------------------------------------|
B|-------------------------------------------------|
G|-------------------------------------------------|
D|-------------------------------------------------|
A|--7-----7-----7-----7-----7-----7-----7--5-------|
B|--5-----5-----5-----5-----5-----5-----5--3-------|

  GTR I,II
e|-------------------------------------------------|
B|-------------------------------------------------|
G|--4-----4----------------------------------------|
D|--4-----4----------------------------------------|
A|--2-----2-----------x--x--5-----5-----------x--x-|
B|--------------------x--x--3-----3-----------x--x-|

  GTR I,II
e|-------------------------------------------------|
B|-------------------------------------------------|
G|-------------------------------------------------|
D|-------------------------------------------------|
A|--7-----7-----7-----7-----7-----7-----7--5-------|
B|--5-----5-----5-----5-----5-----5-----5--3-------|

  GTR I,II
e|-------------------------------------------------|
B|-------------------------------------------------|
G|--4-----4----------------------------------------|
D|--4-----4----------------------------------------|
A|--2-----2-----------x--x--5-----5-----------x--x-|
B|--------------------x--x--3-----3-----------x--x-|

  GTR I,II
e|-------------------------------------------------|
B|-------------------------------------------------|
G|-------------------------------------------------|
D|-------------------------------------------------|
A|--7-----7-----7-----7-----7-----7-----7-----7----|
B|--5-----5-----5-----5-----5-----5-----5-----5----|

  GTR I,II
e|-------------------------------------------------|
B|-------------------------------------------------|
G|-------------------------------------------------|
D|----11----11----11----------10-----------9-------|
A|----12----12----12----------11----------10-------|
B|----10----10----10-----------9-----------8-------|

Bridge

  GTR I
e|-------------------------------------------------|
B|-------------------------------------------------|
G|--------------------7\---------------------------|
D|--1b---------r1-----7\---------------------------|
A|--------------------5\-------0-----0--5----------|
B|--------------------------------0-----------4~---|
                                  .

  GTR I
e|-------------------------------------------------|
B|-------------------------------------------------|
G|--------------------7\---------------------------|
D|--1b---------r1-----7\---------------------------|
A|--------------------5\-------0-----0--5----------|
B|--------------------------------0-----------4~---|
 |                                .
 |GTR II
e|-------------------------------------------------|
B|-------------------------------------------------|
G|-------------------------------------------------|
D|-------------------------------------------------|
A|-----------------------------0-----0--5----------|
B|--------------------------------0-----------4~---|
                                  .

  GTR I,II
e|-------------------------------------------------|
B|-------------------------------------------------|
G|--------------------7\---------------------------|
D|--1b---------r1-----7\---------------------------|
A|--------------------5\-------0-----0--5----------|
B|--------------------------------0-----------4~---|
                                  .

  GTR I,II
e|-------------------------------------------------|
B|-------------------------------------------------|
G|--------------------7\---------------------------|
D|--1b---------r1-----7\---------------------------|
A|--------------------5\----------5-----5/-7-------|
B|--------------------------------3-----3/-5-------|
                                   
  GTR I,II
e|-------------------------------------------------|
B|-------------------------------------------------|
G|--------------------7\---------------------------|
D|--1b---------r1-----7\---------------------------|
A|--------------------5\-------0-----0--5----------|
B|--------------------------------0-----------4~---|
                                  .

  GTR I,II
e|-------------------------------------------------|
B|-------------------------------------------------|
G|--------------------7\---------------------------|
D|--1b---------r1-----7\---------------------------|
A|--------------------5\-------0-----0--5----------|
B|--------------------------------0-----------4~---|
                                  .

  GTR I,II
e|-------------------------------------------------|
B|-------------------------------------------------|
G|--------------------7\---------------------------|
D|--1b---------r1-----7\---------------------------|
A|--------------------5\-------0-----0--5----------|
B|--------------------------------0-----------4~---|
                                  .

  GTR I,II
e|-------------------------------------------------|
B|-------------------------------------------------|
G|--------------------7\---------------------------|
D|--1b---------r1-----7\---------------------------|
A|--------------------5\-------0-----0--5----------|
B|--------------------------------0-----------4~---|
                                  .

  GTR I,II
e|-------------------------------------------------|
B|-------------------------------------------------|
G|-------------------------------------------------|
D|----11----11----11----------10-----------9\------|
A|----12----12----12----------11----------10\------|
B|----10----10----10-----------9-----------8\------|

Pre Chorus
Chorus 2

Outro

  GTR I   
e|-------------------------------------------------|
B|-------------------------------------------------|
G|-------------------------------------------------|
D|-------------------------------------------------|
A|-------------------------------------------------|
B|/12-----0-----------9-10-----9-10--9-10--9-10/14-|
 |                    .        .
 |GTR II
e|-------------------------------------------------|
B|-------------------------------------------------|
G|-------------------------------------------------|
D|-------------------------------------------------|
A|/14----14----------11h12-------------------------|
B|-------------------------------------------------|


  GTR I,II
e|-------------------------------------------------|
B|-------------------------------------------------|
G|-------------------------------------------------|
D|-------------------------------------------------|
A|-------------------------------------------------|
B|-12----12\----------9-10-----9-10--9-10--9-10/17-|
 |                             .
 |GTR II
e|-------------------------------------------------|
B|-------------------------------------------------|
G|-------------------------------------------------|
D|-------------------------------------------------|
A|/14----------------11h12-------------------------|
B|-------------------------------------------------|

  GTR I,II
e|-------------------------------------------------|
B|-------------------------------------------------|
G|-------------------------------------------------|
D|-------------------------------------------------|
A|-------------------------------------------------|
B|-15----15\----------9-10-----9-10--9-10--9-10/12-|
 |                    .        .
 |GTR II
e|-------------------------------------------------|
B|-------------------------------------------------|
G|-------------------------------------------------|
D|-------------------------------------------------|
A|/17----17----------11h12----------------------16\|
B|-------------------------------------------------|

  GTR I    
e|-------------------------------------------------|
B|-------------------------------------------------|
G|--------9--------7-------------------------------|
D|--------9--------7-------------------------------|
A|--------7--------5-------------------------------|
B|--0----------------------10--------9-------10----|
 |
 |GTR II
e|-------------------------------------------------|
B|-------------------------------------------------|
G|-------------------------------------------------|
D|-------14-------12-------------------------------|
A|-------------------------12-------11-------12----|
B|-------------------------------------------------|

  GTR I   
e|-------------------------------------------------|
B|-------------------------------------------------|
G|-------------------------------------------------|
D|-------------------------------------------------|
A|-------------------------------------------------|
B|/12-----0-----------9-10-----9-10--9-10--9-10/14-|
 |                    .        .
 |GTR II
e|-------------------------------------------------|
B|-------------------------------------------------|
G|-------------------------------------------------|
D|-------------------------------------------------|
A|/14----14----------11h12-------------------------|
B|-------------------------------------------------|


  GTR I,II
e|-------------------------------------------------|
B|-------------------------------------------------|
G|-------------------------------------------------|
D|-------------------------------------------------|
A|-------------------------------------------------|
B|-12----12\----------9-10-----9-10--9-10--9-10/17-|
 |                             .
 |GTR II
e|-------------------------------------------------|
B|-------------------------------------------------|
G|-------------------------------------------------|
D|-------------------------------------------------|
A|/14----------------11h12-------------------------|
B|-------------------------------------------------|

  GTR I,II
e|-------------------------------------------------|
B|-------------------------------------------------|
G|-------------------------------------------------|
D|-------------------------------------------------|
A|-------------------------------------------------|
B|-15----15\----------9-10-----9-10--9-10--9-10/12-|
 |                    .        .
 |GTR II
e|-------------------------------------------------|
B|-------------------------------------------------|
G|-------------------------------------------------|
D|-------------------------------------------------|
A|/17----17----------11h12----------------------16\|
B|-------------------------------------------------|

  GTR I    
e|-------------------------------------------------|
B|-------------------------------------------------|
G|--------9--------7-------------------------------|
D|--------9--------7-------------------------------|
A|--------7--------5-------------------------------|
B|--0----------------------10--------9-------10----|
 |
 |GTR II
e|-------------------------------------------------|
B|-------------------------------------------------|
G|-------------------------------------------------|
D|-------14-------12-------------------------------|
A|-------------------------12-------11-------12----|
B|-------------------------------------------------|

  GTR I    
e|-------------------------------------------------|
B|-------------------------------------------------|
G|--------9--------7-------------------------------|
D|--------9--------7-------------------------------|
A|--------7--------5-------------------------------|
B|--0----------------------10--------9-------10----|
 |
 |GTR II
e|-------------------------------------------------|
B|-------------------------------------------------|
G|-------------------------14-------13-------14----|
D|-------14-------12-------------------------------|
A|-------------------------------------------------|
B|-------------------------------------------------|

  GTR I    
e|-------------------------------------------------|
B|-------------------------------------------------|
G|--------9--------7-------------------------------|
D|--------9--------7-------------------------------|
A|--------7--------5-------------------------------|
B|--0----------------------10--------9-------10----|
 |
 |GTR II
e|-------------------------------------------------|
B|-------------------------------------------------|
G|-------------------------14-------13-------14----|
D|-------14-------12--------x--------x--------x----|
A|-------------------------12-------11-------12----|
B|-------------------------------------------------|

  GTR I,II
e|-------------------------------------------------|
B|-------------------------------------------------|
G|-------------------------------------------------|
D|-------------------------------------------------|
A|-------------------------------------------------|
B|/12-----0----------------------------------------|

END

------------------------------------------------------------------------------
10. Good Times Gone
------------------------------------------------------------------------------

NOTE: There isn't a lot of guitar in this song.  All of the slides heard are 
on a slide guitar, not a standard one, so I won't be tabbing it.  I'll put
the chords used in the song, but it's very hard to place them correctly.

GTR I - Standard Tuning Acoustic "Chad Kroeger" (e,B,G,D,A,E)
GTR II - Standard Tuning Electric "Ryan Peake" (e,B,G,D,A,E)
GTR III - Standard Tuning Electric "Chad Kroeger" (e,B,G,D,A,E)

Chords Used

   G5    C5    F5    D#5   A#5  F5(8)
e|-----|-----|-----|-----|-----|-----|
B|-----|-----|-----|-----|-----|-----|
G|-----|--5--|-----|--8--|--3--|-10--|
D|--5--|--5--|--3--|--8--|--3--|-10--|
A|--5--|--3--|--3--|--6--|--1--|--8--|
E|--3--|-----|--1--|-----|-----|-----|

Main Riff

  GTR II
e|-------------------------------------------------|
B|-------------------------------------------------|
G|-----0-----------0-----------0-----------0-------|
D|--------0-----------0-----------0-----------0----|
A|--------------------------1--------1--3--------3-|
E|--3--------3--1--------1-------------------------|

END

| b  bend
| r  release bend
|trp triplet
|PH. pinch harmonic
|fbk feedback
| .  palm-mute
| /  slide up
| \  slide down
| h  hammer-on
| p  pull-off
| ~  vibrato
|(7) harmonic
| x  Mute note
===============================================================================

comments
We did not receive enough feedback on this tab! Please rate:
print report bad tab
1 2 3 4 5
I want to post or [tab]
guest
You may want to rate the tab now too:
select rating
Please do not post tabs as comments. Select "correction" instead!