Oops, an error
Loading. Please wait.

State Tab

5,031 views 3 this week
no commentswrite comment
1 2 3 4 5
accurate
x 3
Autoscroll
+/-
esc
set tempo
stop
Hey! There's an official Ultimate Guitar app which is ideal
for learning songs when you're away from computer. Get the app
WARNING: You are trying to view
                                    content from Ultimate-Guitar.com
                                    in an unauthorized application,
                                    which is prohibited.

                                    Please use an official Ultimate
                                    Guitar Tabs application for iPhone,
                                    iPad or Android to access legitimate
                                    chords, guitar, bass, and drum tabs
                                    from Ultimate-Guitar.com database.

                                    Type "ultimate guitar tabs" in Apple
                                    App Store's or Android Market's
                                    search to find the application.
Artist - Nickelback
Album  - The State


      Songs on this album
        1.Breathe
	2.Cowboy hat
	3.Leader of men
	4.Old enough
	5.Worthy to say
	6.Diggin this
	7.Deep
	8.One last run
	9.Not leavin yet
	10. Hold out your hand
	11.Leader of men (acoustic)

I don't have the tab for "Hold out your hand" but I'll try to find it.

	1.Breathe
Tuning - Dropped D down 1 whole step
Riff:
D--------------------------------------|
A--------------------------------------|
F--------------------------------------|
C--------------------------------------|
G-------------------------------3h5----|
C---0---0-0-3h5--0---0-3h5--0-0--------|

D------------------------------------|
A------------------------------------|
F------------------------------------|
C------------------------------------|
G---5-5-5-5-------------------3h5----|
C---0-0-0-0-3h5-0--0-3h5--0-0--------|

play 3 times:
D--------------------|
A--------------------|
F--------------------|
C--5-5-5-5-5-5-5/7---|
G--3-3-3-3-3-3-3/5---|
C--------------------|

Verse:
D---------------------------------------------------------|
A---------------------------------------------------------|
F---------------------------------------------------------|
C--------7--3---5----3-------5-7---------3----5-----3-----|
G---5----------------------5------5-----------------------|
C---------------------------------------------------------|

Chorus:
D----------------------------------------------------------------------|
A----------------------------------------------------------------------|
F--7--7--7--7-7-7--10--10--10--10-10-10-10--5--5--5--5-5-5-------------|
C--7--7--7--7-7-7--10--10--10--10-10-10-10--5--5--5--5-5-5--3-3--3-3---|
G--5--5--5--5-5-5--8---8---8---8--8--8--8---3--3--3--3-3-3--3-3--3-3---|
C--0--0--0--0-0-0-------------------------------------------3-3--3-3---|

D------------------|
A------------------|
F------------------|
C-5-5-5-5-5-5-5-5--|
G-3-3-3-3-3-3-3-3--|
C------------------|

D---------------------------------------------------------------------|
A---------------------------------------------------------------------|
F----------------------------7\5-5-x-x-x-x-x-x-7\5-5--x-x-x-x-x-x-x---|
C-3--3-3-3-3-3--5-5-5-5-5-5--7\5-5-x-x-x-x-x-x-7\5-5--x-x-x-x-x-x-x---|
G-3--3-3-3-3-3--5-5-5-5-5-5--5\3-3-x-x-x-x-x-x-5\3-3--x-x-x-x-x-x-x---|
C-3--3-3-3-3-3--5-5-5-5-5-5-------------------------------------------|

D----------------------------------------------------------------------|
A----------------------------------------------------------------------|
F------------------------------------3--3--3-3-3-3---5-5-5-5-5-5-5-5---|
C----3--3-3--3-3-3---5--5-5--5-5-5---3--3--3-3-3-3---5-5-5-5-5-5-5-5---|
G----3--3-3--3-3-3---5--5-5--5-5-5---1--1--1-1-1-1---3-3-3-3-3-3-3-3---|
C----3--3-3--3-3-3---5--5-5--5-5-5-------------------------------------|

D-------------------------------------------|
A-------6---------6--6----------------------|
F---7-----5-5h7----------4--4h5-------------|
C-------------------------------------3-----|
G---------------------------------5---------|
C-------------------------------------------|

clean part:
D-----------------------------------------|
A---3----3----5---5----8---8----6---6-----|
F---2------2--5-----5--7-----7--5-----5---|
C---0-0-------5--------5-5------3-3-------|
G---0---------3-3------5--------3---------|
C---0------------------5--------3---------|

Lead-in to final chorus
D-----------------------------------------------------|
A---3---3----5---5------------------------------------|
F---2-----2--5-----5---5-5-5-5-5-5-5-5-5---5-5-5--5---|
C---0-0------5---------5-5-5-5-5-5-5-5-5---5-5-5--5---|
G---0--------3-3-------3-3-3-3-3-3-3-3-3---3-3-3--3---|
C---0-------------------------------------------------|

	2.Cowboy hat
Intro/Verse
e-------------------------------------|
B-------------------------------------|
G-------------------------------------|
D--0h1--------------7-7-7-7-7---------|
A------2--2-2-5--5--0-0-0-0-0--7--7---|
B------0--0-0-3--3-------------5--5---|

e-----------------------------------------------------------------------------|
B-----------------------------------------------------------------------------|
G-----------------------------------------------------------------------------|
D-----------------------------------------------------------------------------|
A-----------------------------------------------------------------------------|
B-0-0-0-0-0-0-0-0-0h3-3-3-3-3-3-3-3/10-10-10-10-10-10-10-10\5-5-5-5-5-5-5-5---|

e---------5-------------------------------------------|
B---------5-------------------------------------------|
G---------2-----------------------------(2)-(2)-(2)---|
D---------2-------------(2)-(2)-(2)-(2)-(2)-(2)-(2)---|
A---------0-------------(0)-(0)-(0)-(0)-(0)-(0)-(0)---|
B---0--0----------0--0--------------------------------|

Chorus:
e------------------------------------|
B------------------------------------|
G---5--5-----------------------------|
D---5--5------------------------2-2--|
A---3--3----10---10-10--5--5-5--0-0--|
B------------8----8--8--3--3-3-------|

play 3x
e----------------------------------------|
B----------------------------------------|
G----------------------------------------|
D----------------------------------------|
A---10-10-10-10-10-10-10-10-7-7--7--7-7--|
B----8--8--8--8--8--8--8--8-5-5--5--5-5--|

e----------------------------------------------------|
B----------------------------------------------------|
G----------------------------------------------------|
D----------------------------------------------------|
A--10-10-10-10-10-10-10-10-/12-12-12-12-12-12-12-12--|
B---8--8--8--8--8--8--8--8-/10-10-10-10-10-10-10-10--|

Bridge:
e------0-----0----------0-----0----------0-----0----------0-----0---0-----|
B--3-0---0-3---3-0--2-0---0-2---2-0--1-0---0-1---1-0--0-0---0-0---0-------|
G-------------------------------------------------------------------------|
D-------------------------------------------------------------------------|
A-------------------------------------------------------------------------|
B-------------------------------------------------------------------------|

e--------------------------------------------------|
B--------------------------------------------------|
G-------------------------------2-2-2-2-2-2-2-2----|
D---(2)-(2)-(2)-(2)-(2)-(2)-(2)-2-2-2-2-2-2-2-2----|
A---(0)-(0)-(0)-(0)-(0)-(0)-(0)-0-0-0-0-0-0-0-0----|
B--------------------------------------------------|

e---------5------------------------------------------------------------------|
B---------5---------2-----2---------2----------------------------------------|
G---------2---------2-----2---------2----------------------------------------|
D---------2---------2-----2---------2---------(2)-(2)-(2)-(2)-(2)-(2)-(2)----|
A---------0---------0-----0---------0---------(0)-(0)-(0)-(0)-(0)-(0)-(0)----|
B---0--0------0--0----0-0-----0--0------0-0----------------------------------|

	3.Leader of men
Intro 1(x18):
E-------|
B-------|
G-------|
D-0h2---|
A-------|
D-----2-|

E------------------|
B------------------|
G------------------|
D--0-0h2--2-2--2-2-|
A--0-0h2--2-2--2-2-|
D--0-0h2--2-2--2-2-|

Rift1 (x3  verse/chorus)

E----------------------------------------------------------------|
B------------------------------------3-3-3-3-3-3-3---------------|
G------------------------------------2-2-2-2-2-2-2---------------|
D--0h2-2-2-2-2-2-2-2-5-5-5-5-5-5-5-5-0-0-0-0-0-0-0-2-2-2-2-2-2-2-|
A--0h2-2-2-2-2-2-2-2-5-5-5-5-5-5-5-5-0-0-0-0-0-0-0-2-2-2-2-2-2-2-|
D--0h2-2-2-2-2-2-2-2-5-5-5-5-5-5-5-5-0-0-0-0-0-0-0-2-2-2-2-2-2-2-|

E----------------------------------------------------------------|
D----------------------------------------------------------------|
G----------------------------------------------------------------|
D-----------------2---------------5------------0-------------2---|
A------------------2---------------5------------0-------------2--|
D-------------------2---------------5------------0-------------2-|

E----------------------------------------------------------------|
B----------------------------------------------------------------|
G----------------------------------------------------------------|
D-5-------7-----------------2--------------2-2-2-2-2-2-2-2-2-2-2-|
A-5-------7-----------------2--------------2-2-2-2-2-2-2-2-2-2-2-|
D-5-------7-----------------2--------------2-2-2-2-2-2-2-2-2-2-2-|

E----------------------------------------------------------------|
B----------------------------------------------------------------|
G----------------------------------------------------------------|
D-----5---7--------------------2--0---0h2-0h2--------------------|
A----------------------------------------------------------------|
D----------------------------------------------------------------|

	4.Old enough
Intro
e|-------------------------------------|
b|-------------------------------------|
g|--------0-----0--------0-----0-----0-|x6
d|------0-----0--------0-----0-----0---|
a|-------------------------------------|
d|-0-1------3-----/7\5-----5-----5-----|

Verse and Chorus

Chorus

e|-----------------------------------------------------|
b|-----------------------------------------------------|
g|--------------3---3-3-3-3----------------5---5-5-5-5-|
d|-5---5-5-5-5--3---3-3-3-3--3---3-3-3-3---5---5-5-5-5-|x4
a|-5---5-5-5-5--1---1-1-1-1--3---3-3-3-3---3---3-3-3-3-|
d|-5---5-5-5-5---------------3---3-3-3-3---------------|

Bridge
e|-------------------------------------|
b|-------------------------------------|
g|--------0-----0--------0-----0-----0-|x5
d|------0-----0--------0-----0-----0---|
a|-------------------------------------|
d|-0-1------3-----/7\5-----5-----5-----|

Bridge 2
e|------------------------------------|
b|------------------------------------|
g|-5-5-5-5-5-5-5-5--------------------|
d|-5-5-5-5-5-5-5-5--1-1-1-1-1-1-1-1---|
a|-3-3-3-3-3-3-3-3--1-1-1-1-1-1-1-1---|
d|------------------1-1-1-1-1-1-1-1---|

e|-------------------------------------|
b|-------------------------------------|
g|-3-3-3-3-3-3-3-3---------------------|
d|-3-3-3-3-3-3-3-3--1-1-1-1-3-3-3-3----|
a|-1-1-1-1-1-1-1-1--1-1-1-1-3-3-3-3----|
d|------------------1-1-1-1-3-3-3-3----|

Solo:
e|----------------------------------------------|
b|----------------------------------------------|
g|---------3---------3p2-2-------2-3-3-3-3-5-5-5|
d|-------3---5----------------------------------|
a|-1-3/5----------------------------------------|
d|----------------------------------------------|

e|--------------------------------------------|
b|----------------------6---8p6--------------6|
g|5-3-3-3-----------5/7---------7-5-7---7-7---|
d|--------5p3h5-------------------------------|
a|--------------------------------------------|
d|--------------------------------------------|

e|--------------------6-----------------------|
b|---6---6---6----6/8-----8p6-----------------|
g|-7---7---7---7--------------7\5\3-----------|
d|--------------------------------------------|
a|--------------------------------------------|
d|--------------------------------------------|

e|-------------------------------------|
b|-------------------------------------|
g|--------0-----0--------0-----0-----0-|
d|------0-----0--------0-----0-----0---|
a|-------------------------------------|
d|-0-1------3-----/7\5-----5-----5-----|

	5.Worthy to say
chords used:
E - x799xx
G - 355XXX
A - 577xxx
C - x355xx
D - x577xx

verse:
E|---------------------|
B|---------------------|
G|------------------12-|
D|----11-------11------|
A|-0-------0-0----0----|
E|---------------------|

lead:
E|------------------------------------|
B|-----------------------------12h14~-|
G|-12h14p12h14---14h16p14h16----------|
D|------------------------------------|
A|------------------------------------|
E|------------------------------------|

chorus:play 2x
E|-----------------------------------|
B|-----------------------------------|
G|-5---5---7-7-7-7---------5---------|
D|-5---5---7-7-7-7--7---7--5-7-7-7-7-|
A|-3---3---5-5-5-5--7---7--3-7-7-7-7-|
E|------------------5---5----5-5-5-5-|

bridge:play 3x
E|-----------------------|-----------------------|
B|-----------------------|-----------------------|
G|------------------9--5-|------------------7--5-|
D|-7-7-7-7-7-7-7-7--9--5-|-5-5-5-5-5-5-5-5--7--5-|
A|-7-7-7-7-7-7-7-7--7--3-|-5-5-5-5-5-5-5-5--5--3-|
E|-5-5-5-5-5-5-5-5-------|-3-3-3-3-3-3-3-3-------|

outro:
E|-----------------------|-----------------------|
B|-----------------------|-----------------------|
G|------------------7--5-|------------------7--5-|
D|-7-7-7-7----------7--5-|-5-5-5-5-5-5-5-5--7--5-|
A|-7-7-7-7--3b---0--5--3-|-5-5-5-5-5-5-5-5--5--3-|
E|-5-5-5-5---------------|-3-3-3-3-3-3-3-3-------|

	6.Diggin this
Intro
E|-------------------------------------|
B|-------------------------------------|
G|--5b~~~--------5b~~~-----------------|
D|--5b~~~----5---5b~~~--3-3------------|
A|---------x-3----------5-5------------|
E|---------x---------------------------|

E|-------------------------------------|
B|-------------------------------------|
G|------5b~~~------5b~~~---------------|
D|------5b~~~----5-5b~~~--5-5----------|
A|-3--5--------x-3--------3-3----------|
E|-3--5--------x-----------------------|

E|--------------------------------------|
B|------------------1st----2nd----------|
G|--------------------------------------|
D|-----------------3h5------3br---------|
A|-----6-3-3-3-6-3----------------------|
E|-3-3----------------------------------|

E|-------------------------------------|
B|-------------------------------------|
G|--3----------------------------------|
D|--3-----3----------------------------|
A|--1-----3----------------------------|
E|--------3----------------------------|

E|-------------------------------------|
B|-------------------------------------|
G|-------------------------------------|
D|-1-x-2-3-x-1-1-1---1-x-2-3-x-1-1-----|
A|-1-x-2-3-x-1-1-1---1-x-2-3-x-1-1-----|
E|-------------------------------------|

E|-----------------------------------------------|
B|-----------------------------------------------|
G|-----------------------------------------------|
D|-----1h2------1\3-1-1\3-1----------------------|
A|-1h3----------1\3-1-1\3-1----------------------|
E|-----------------------------------------------|

solo
E|------------------------------------------|
B|------------------------------------------|
G|----------------------------------18------|
D|----------------14----------18p15----17---|
A|-15151515151515----15151515---------------|
E|------------------------------------------|

E|-----------------------------------------------|
B|-----------------------------------------------|
G|-----------------------------------------------|
D|----------------14-----------------13h14-------|
A|-15151515151515-----151515131313h15------15-13-|
E|-----------------------------------------------|

E|-----------------------------------------------|
B|-----------------------------------------------|
G|-----------------------------------------------|
D|-14p13------13--14p13-----13--14p13------13----|
A|-------15-15----------1515----------15-15------|
E|-----------------------------------------------|

E|-----------------------------------------------|
B|-----------------------------------------------|
G|-----------------------------------------------|
D|-14p13----13--15\17 17-17--15-14-13------------|
A|-------15--------------------------------------|
E|-----------------------------------------------|

E|-------------------------------------------------|
B|-------------------------------------------------|
G|-------------------------------------------------|
D|-15-14-13-12-------------------------------------|
A|-------------15-14-13-12-------------------------|
E|----------------------------9-8-7~~~~~~~~~-------|

	7.Deep
Intro:
e--------------------------------------------------------------------|
B--------------------------------------------------------------------|
G---------x-5--------------------------5-5-5-------------------------|
D---x-3---x-5--------------------------5-5-5-------------x-5--x-3----|
A---x-3---x-3------8-5-5-8-5---8-5-8-5-3-3-3--8-5-5-8-5--x-5--x-3----|
D---x-3------------0-0-0-0-0---0-0-0-0--------0-0-0-0-0--x-5--x-3----|

Verse:
e---------------------------------------------------|
B---------------------------------------------------|
G-----------------------------------------5-5-------|
D----------------------5-5-5--------------5-5-5-5---|
A---8-5-5-8-5--8-5-8-5-3-3-3---8-5-5-8-5--3-3-5-5---|
D---0-0-0-0-0--0-0-0-0---------0-0-0-0-0------5-5---|

Chorus:
e-------------------------------------------------------|
B-------------------------------------------------------|
G-----------------------5-5-5---------------x-5---x-5---|
D-----------------------5-5-5---------------x-5---x-5---|
A---3-5-5-3-5---3-5-5-3-5-3-3---3-5-5-3-5---x-3---x-3---|
D---0-0-0-0-0---0-0-0-0---------0-0-0-0-0---------------|

Interlude:
e----------------------------------------------------|
B----------------------------------------------------|
G-----------------------5-----------------------5----|
D-----------------------5-----------------------5----|
A------5-3-0-3--5-3-0-3-3------5-3-0-3--5-3-0-3-3----|
D----0-0-0-0-0--0-0-0-0------0-0-0-0-0--5-3-0-3------|

e----------------------------------------------------------------|
B----------------------------------------------------------------|
G----------------------------5-----------------------------5-----|
D----------------------------5-----------------------------5-----|
A------5-3-0-3-------5-3-0-3-3-------5-3-0-3-------5-3-0-3-3-----|
D----0-0-0-0-0-0-0-0-0-0-0-0-------0-0-0-0-0-0-0-0-5-3-0-3-------|

	8. One last run
Intro
E------------------------|
B------------------------|
G------------------------|
D------------------------|
A------------------------|
E--3-1-h3-1-h3-1-h3-1-h3-|

E---------------------------------------------------------------------|
B-----------------------------------5-5-5-5---------------------------|
G------------------5-5-5-5-5-5-5-5--5-5-5-5--3-3-3-3------------------|
D-5-5-5-5-5-5-5-5--5-5-5-5-5-5-5-5--3-3-3-3--3-3-3-3--5-5-5-5-5-5-5-5-|
A-5-5-5-5-5-5-5-5--3-3-3-3-3-3-3-3-----------1-1-1-1--5-5-5-5-5-5-5-5-|
E-3-3-3-3-3-3-3-3-------------------------------------3-3-3-3-3-3-3-3-|

E---------------------------------------------------------------------|
B---------------------------------------------------------------------|
G--X-X-X-5--8-8--10-10--X-X-X-5--8-8--10-10--X-X-X-5--8-8-10-10-------|
D--X-X-X-5--8-8--10-10--X-X-X-5--8-8--10-10--X-X-X-5--8-8-10-10-------|
A--X-X-X-3--6-6---8--8--X-X-X-3--6-6--10--8--X-X-X-3--6-6--8--8-------|
E---------------------------------------------------------------------|

E----------------------------------------------------------------|
B----------------------------------------------------------------|
G--8-8-8-8-10-10-10-10-------------------------------------------|
D--8-8-8-6-10-10-10-10-------------------------------------------|
A--6-6-6-6--8--8--8--8-------------------------------------------|
E-----------------------h3-1-h3-1-h3-1-h3-1-h3-1-h3-1-h3-1-h3-1--|

	9. Not leavin yet
e-----------------------------------------------------|
b-----------------------------------------------------|
g-----------------------------------------------------|
d-2-2---0-2-2---0-2-2-----0-2-3-2-3-2-----2-2---0-2-2-|
a-2-2---0-2-2---0-2-2-----0-2-3-2-3-2-----2-2---0-2-2-|
d-2-2---0-2-2---0-2-2-----0-2-3-2-3-2-----2-2---0-2-2-|

e----------------------------------|
b----------------------------------|
g----------------------------------|
d-0-5-5---0-5-5---0-5-5------------|
a-0-5-5---0-5-5---0-5-5------------|
d-0-5-5---0-5-5---0-5-5—0-4-5-4-5--|

e----------------------------------|
b----------------------------------|
g----------------------------------|
d-------------2-----------5--------|
a-------------2-----------5--------|
d-------------2-----------5--------|

chorus
e-----------------------------------|
b-----------------------------------|
g-----------------------------------|
d-2-2-2-----5-5-5—0-0-5-5-0---------|
a-2-2-2-----5-5-5—0-0-5-5-0---------|
d-2-2-2-----5-5-5—0-0-5-5-0---------|

	10.Hold out your hand
	sorry don't have this song

	11. Leader of men (acoustic)
	I'm not sure if this one is right
E------------------|
B------------------|
G------------------|
D--0-0h2--2-2--2-2-|
A--0-0h2--2-2--2-2-|
D--0-0h2--2-2--2-2-|

Rift1 (x3  verse/chorus)

E----------------------------------------------------------------|
B------------------------------------3-3-3-3-3-3-3---------------|
G------------------------------------2-2-2-2-2-2-2---------------|
D--0h2-2-2-2-2-2-2-2-5-5-5-5-5-5-5-5-0-0-0-0-0-0-0-2-2-2-2-2-2-2-|
A--0h2-2-2-2-2-2-2-2-5-5-5-5-5-5-5-5-0-0-0-0-0-0-0-2-2-2-2-2-2-2-|
D--0h2-2-2-2-2-2-2-2-5-5-5-5-5-5-5-5-0-0-0-0-0-0-0-2-2-2-2-2-2-2-|
|
E----------------------------------------------------------------|
D----------------------------------------------------------------|
G----------------------------------------------------------------|
D-----------------2---------------5------------0-------------2---|
A------------------2---------------5------------0-------------2--|
D-------------------2---------------5------------0-------------2-|

E----------------------------------------------------------------|
B----------------------------------------------------------------|
G----------------------------------------------------------------|
D-5-------7-----------------2--------------2-2-2-2-2-2-2-2-2-2-2-|
A-5-------7-----------------2--------------2-2-2-2-2-2-2-2-2-2-2-|
D-5-------7-----------------2--------------2-2-2-2-2-2-2-2-2-2-2-|
comments
We did not receive enough feedback on this tab! Please rate:
print report bad tab
1 2 3 4 5
I want to post or [tab]
guest
You may want to rate the tab now too:
select rating
Please do not post tabs as comments. Select "correction" instead!