Oops, an error
Loading. Please wait.

10Th Man Down Tab

ver2
ver2

Whole song

Interactive

More versions @911Tabs.com
1,839 views 1 this week
no commentswrite comment
1 2 3 4 5
please rate
Autoscroll
+/-
esc
set tempo
stop
Contributor
Hey! There's an official Ultimate Guitar app which is ideal
for learning songs when you're away from computer. Get the app
WARNING: You are trying to view
                                    content from Ultimate-Guitar.com
                                    in an unauthorized application,
                                    which is prohibited.

                                    Please use an official Ultimate
                                    Guitar Tabs application for iPhone,
                                    iPad or Android to access legitimate
                                    chords, guitar, bass, and drum tabs
                                    from Ultimate-Guitar.com database.

                                    Type "ultimate guitar tabs" in Apple
                                    App Store's or Android Market's
                                    search to find the application.
#----------------------------------PLEASE NOTE---------------------------------#
#This file is the author's own work and represents their interpretation of the #
#song. You may only use this file for private study, scholarship, or research. #
#------------------------------------------------------------------------------#

10TH MAN DOWN


Transcribed by Gulli05
        



Gtr I (E A D G B E) - 'Guitar Harmonics'
Gtr II (D A D G B E) - 'Guitar'

  Q=125
 4/4
  Gtr I
  W          W          W          W
|----------|----------|----------|------|
|----------|----------|----------|------|
|----------|----------|----------|------|
|----------|----------|----------|------|
|----------|----------|----------|------|
|----------|----------|----------|------|


  W          W          W          W
|----------|----------|----------|------|
|----------|----------|----------|------|
|----------|----------|----------|------|
|----------|----------|----------|------|
|----------|----------|----------|------|
|----------|----------|----------|------|


  Gtr II
  W          W          W          +W
|----------|----------|----------|--------|
|----------|----------|----------|--------|
|----------|----------|-2--------|-(2)----|
|----------|----------|-2--------|-(2)----|
|----------|----------|-0--------|-(0)----|
|----------|----------|----------|--------|


  +W           H    H      Q  E E +H       Q  E E +H
|------------|-----------|---------------|---------------|
|------------|-----------|---------------|---------------|
|-(2)--------|-----------|-2-------------|---------------|
|-(2)--------|-5----3----|-2----3-(3)----|-5----7-(7)----|
|-(0)--------|-5----3----|-0----3-(3)----|-5----7-(7)----|
|------------|-5----3----|------3-(3)----|-5----7-(7)----|


  S S S S S S S S S S S S S S E   S S S S S S S S S S S S S S S S
|-------------------------------|---------------------------------|
|-------------------------------|---------------------------------|
|-------------------------------|---------------------------------|
|-0---0---0---0---0---0---0---0-|-3---3---3---3---3---3---3---3---|
|-0---0---0---0---0---0---0---0-|-3---3---3---3---3---3---3---3---|
|-0---0---0---0---0---0---0---0-|-3---3---3---3---3---3---3---3---|


  E E S S S S S S S S S S S S   E E S S S S S S S S S S S S
|-----------------------------|-----------------------------|
|-----------------------------|-----------------------------|
|-5-5-5---5---5---5---5---5---|-5-5-5---5---5---5---5---5---|
|-5-5-5---5---5---5---5---5---|-5-5-5---5---5---5---5---5---|
|-3-3-3---3---3---3---3---3---|-3-3-3---3---3---3---3---3---|
|-----------------------------|-----------------------------|


  E E S S S S S S S S S S S S   H    Q  Q    Q  E E +H
|-----------------------------|------------|---------------|
|-----------------------------|------4--3--|---------------|
|-5-5-5---5---5---5---5---5---|-3----3--3--|-5-------------|
|-5-5-5---5---5---5---5---5---|-3----1--0--|-5----6-(6)----|
|-3-3-3---3---3---3---3---3---|-1----------|-3----6-(6)----|
|-----------------------------|------------|------6-(6)----|


  Q  E  E  +H       S S S S S S S S S S S S S S S S   W
|-----------------|---------------------------------|------|
|-----------------|---------------------------------|------|
|-----------------|---------------------------------|------|
|-8----10-(10)----|-3---3---3---3---3---3---3---3---|-6----|
|-8----10-(10)----|-3---3---3---3---3---3---3---3---|-6----|
|-8----10-(10)----|-3---3---3---3---3---3---3---3---|-6----|


  E S S S S E S S S S S S S S   E S S E S S E S S E S S
|-----------------------------|--------------------------|
|-----------------------------|--------------------------|
|-----------------------------|--------------------------|
|-7---------7-----------------|-5-----5-----7-----7------|
|-7---------8-----------------|-5-----5-----7-----7------|
|-7-7---7---7-7---7---7---7---|-5-7---5-7---7-7---7-7----|


  E S S S S E S S S S S S S S   H    H      E S S S S E S S S S E S S
|-----------------------------|-----------|---------------------------|
|-----------------------------|-----------|---------------------------|
|-----------------------------|-----------|---------------------------|
|-7---------7-----------------|-5----3----|-2---------3---------3-----|
|-7---------8-----------------|-5----3----|---0---0-----0---0-----0---|
|-7-7---7---7-7---7---7---7---|-5----3----|---------------------------|


  E S S E S S E S S Q    H    +Q.   E   +W
|----------------------|--------------|--------|
|----------------------|--------------|--------|
|----------------------|--------------|--------|
|-5-----5-----7-----7--|------------3-|-(3)----|
|----------------------|-5----(5)-----|--------|
|---7-----7-----7------|--------------|--------|


  E S S S S E S S S S S S S S   E S S E S S E S S E S S
|-----------------------------|--------------------------|
|-----------------------------|--------------------------|
|-2---------2-----------------|--------------------------|
|-2---------3-----------------|-5-----5-----7-----7------|
|-0-0---0---0-0---0---0---0---|-5-----5-----7-----7------|
|-----------------------------|-5-7---5-7---7-7---7-7----|


  E S S S S E S S S S S S S S   H    H      E S S S S E S S S S E S S
|-----------------------------|-----------|---------------------------|
|-----------------------------|-----------|---------------------------|
|-----------------------------|-----------|---------------------------|
|-7---------7-----------------|-5----3----|-2---------3---------3-----|
|-7---------8-----------------|-5----3----|---0---0-----0---0-----0---|
|-7-7---7---7-7---7---7---7---|-5----3----|---------------------------|


  E S S E S S E S S Q    H    +Q.   E   +W           H.      E E
|----------------------|--------------|------------|--------------|
|----------------------|--------------|------------|--------------|
|----------------------|--------------|------------|--------------|
|-5-----5-----7-----7--|------------3-|-(3)--------|-2-------3-2--|
|----------------------|-5----(5)-----|------------|-3-------5-3--|
|---7-----7-----7------|--------------|------------|--------------|


  W          E S S S S E S S S S E S S   S S E S S S S Q  Q
|----------|---------------------------|----------------------|
|----------|---------------------------|----------------------|
|----------|-2---------2---------2-----|-----2---------2--5---|
|-0--------|-2---------2---------2-----|-----2---------2--5---|
|-2--------|-0-0-0-0-0-0-0-0-0-0-0-0-0-|-0-0-0-0-0-0-0-0--3---|
|----------|---------------------------|----------------------|


  E S S S S E S S S S E S S   S S E S S S S Q  Q    E S S S S E S S S S E S S
|---------------------------|---------------------|---------------------------|
|---------------------3-----|-----3---------------|---------------------------|
|---------------------2-----|-----2---------5--4--|-2---------2---------2-----|
|-2---------2---------0-0-0-|-0-0-0-0-0-0-0-5--5--|-2---------2---------2-----|
|-2---------2---------------|---------------3--2--|-0-0-0-0-0-0-0-0-0-0-0-0-0-|
|-2-2-2-2-2-2-2-2-2-2-------|---------------------|---------------------------|


  S S E S S S S Q  Q    E S S S S E S S S S E S S   S S E S S S S Q  Q
|---------------------|---------------------------|---------------------|
|---------------------|---------------------3-----|-----3---------------|
|-----2---------2--5--|---------------------2-----|-----2---------5-----|
|-----2---------2--5--|-3---------3---------0-0-0-|-0-0-0-0-0-0-0-5--5--|
|-0-0-0-0-0-0-0-0--3--|-3---------3---------------|---------------3--5--|
|---------------------|-3-3-3-3-3-3-3-3-3-3-------|------------------5--|


  E S S S S E S S S S S S S S   E S S E S S E S S E S S
|-----------------------------|--------------------------|
|-----------------------------|--------------------------|
|-----------------------------|--------------------------|
|-7---------7-----------------|-5-----5-----7-----7------|
|-7---------8-----------------|-5-----5-----7-----7------|
|-7-7---7---7-7---7---7---7---|-5-7---5-7---7-7---7-7----|


  E S S S S E S S S S S S S S   H    H      E S S S S E S S S S E S S
|-----------------------------|-----------|---------------------------|
|-----------------------------|-----------|---------------------------|
|-----------------------------|-----------|---------------------------|
|-7---------7-----------------|-5----3----|-2---------3---------3-----|
|-7---------8-----------------|-5----3----|---0---0-----0---0-----0---|
|-7-7---7---7-7---7---7---7---|-5----3----|---------------------------|


  E S S E S S E S S Q    H    +Q.   E   +W
|----------------------|--------------|--------|
|----------------------|--------------|--------|
|----------------------|--------------|--------|
|-5-----5-----7-----7--|------------3-|-(3)----|
|----------------------|-5----(5)-----|--------|
|---7-----7-----7------|--------------|--------|


  E S S S S E S S S S S S S S   E S S E S S E S S E S S
|-----------------------------|--------------------------|
|-----------------------------|--------------------------|
|-2---------2-----------------|--------------------------|
|-2---------3-----------------|-5-----5-----7-----7------|
|-0-0---0---0-0---0---0---0---|-5-----5-----7-----7------|
|-----------------------------|-5-7---5-7---7-7---7-7----|


  E S S S S E S S S S S S S S   H    H      E S S S S E S S S S E S S
|-----------------------------|-----------|---------------------------|
|-----------------------------|-----------|---------------------------|
|-----------------------------|-----------|---------------------------|
|-7---------7-----------------|-5----3----|-2---------3---------3-----|
|-7---------8-----------------|-5----3----|---0---0-----0---0-----0---|
|-7-7---7---7-7---7---7---7---|-5----3----|---------------------------|


  E S S E S S E S S Q    H    +Q.   E   +W           H.      E E
|----------------------|--------------|------------|--------------|
|----------------------|--------------|------------|--------------|
|----------------------|--------------|------------|--------------|
|-5-----5-----7-----7--|------------3-|-(3)--------|-2-------3-2--|
|----------------------|-5----(5)-----|------------|-3-------5-3--|
|---7-----7-----7------|--------------|------------|--------------|


  W          E S S S S E S S S S E S S   S S E S S S S Q  Q
|----------|---------------------------|----------------------|
|----------|---------------------------|----------------------|
|----------|-2---------2---------2-----|-----2---------2--5---|
|-0--------|-2---------2---------2-----|-----2---------2--5---|
|-2--------|-0-0-0-0-0-0-0-0-0-0-0-0-0-|-0-0-0-0-0-0-0-0--3---|
|----------|---------------------------|----------------------|


  E S S S S E S S S S E S S   S S E S S S S Q  Q    E S S S S E S S S S E S S
|---------------------------|---------------------|---------------------------|
|---------------------3-----|-----3---------------|---------------------------|
|---------------------2-----|-----2---------5--4--|-2---------2---------2-----|
|-2---------2---------0-0-0-|-0-0-0-0-0-0-0-5--5--|-2---------2---------2-----|
|-2---------2---------------|---------------3--2--|-0-0-0-0-0-0-0-0-0-0-0-0-0-|
|-2-2-2-2-2-2-2-2-2-2-------|---------------------|---------------------------|


  S S E S S S S Q  Q    E S S S S E S S S S E S S   S S E S S S S Q  Q
|---------------------|---------------------------|---------------------|
|---------------------|---------------------3-----|-----3---------------|
|-----2---------2--5--|---------------------2-----|-----2---------5-----|
|-----2---------2--5--|-3---------3---------0-0-0-|-0-0-0-0-0-0-0-5--5--|
|-0-0-0-0-0-0-0-0--3--|-3---------3---------------|---------------3--5--|
|---------------------|-3-3-3-3-3-3-3-3-3-3-------|------------------5--|


  Q  Q  Q  Q    S S S S S S S S S S S S S S S  S   S S S S S S S S Q  Q
|-------------|----------------------------------|------------------------|
|-------------|----------------------------------|------------------------|
|-------------|----------------------------------|------------------------|
|-7--2--3--5--|-7-------7-----8-7-------7-----10-|-7-------7-----8-5--8---|
|-7--2--3--5--|-7-------7-----8-7-------7-----10-|-7-------7-----8-5--8---|
|-7--2--3--5--|-7-7---7-7-7---8-7-7---7-7-7---10-|-7-7---7-7-7---8-5--8---|


  S S S S S S S S S S S S S S S  S   H    H
|----------------------------------|-----------|
|----------------------------------|-----------|
|----------------------------------|------7----|
|-7-------7-----8-7-------7-----10-|-8----7----|
|-7-------7-----8-7-------7-----10-|-8----5----|
|-7-7---7-7-7---8-7-7---7-7-7---10-|-8---------|


  S S S S S S S S S S S S S S S  S   S S S S S S S S Q  Q
|----------------------------------|-----------------------|
|----------------------------------|-----------------------|
|----------------------------------|-----------------------|
|-7-------7-----8-7-------7-----10-|-7-------7-----8-5--8--|
|-7-------7-----8-7-------7-----10-|-7-------7-----8-5--8--|
|-7-7---7-7-7---8-7-7---7-7-7---10-|-7-7---7-7-7---8-5--8--|


  S S S S S S S S S S S S S S S  S    H     Q  Q
|----------------------------------|--------------|
|----------------------------------|--------------|
|----------------------------------|--------------|
|-7-------7-----8-7-------7-----10-|-12----10--5--|
|-7-------7-----8-7-------7-----10-|-12----10--5--|
|-7-7---7-7-7---8-7-7---7-7-7---10-|-12----10--5--|


  S S S S S S S S S S S S S S S  S   S S S S S S S S Q  Q
|----------------------------------|-----------------------|
|----------------------------------|-----------------------|
|----------------------------------|-----------------------|
|-7-------7-----8-7-------7-----10-|-7-------7-----8-5--8--|
|-7-------7-----8-7-------7-----10-|-7-------7-----8-5--8--|
|-7-7---7-7-7---8-7-7---7-7-7---10-|-7-7---7-7-7---8-5--8--|


  S S S S S S S S S S S S S S S  S   H    H
|----------------------------------|-----------|
|----------------------------------|-----------|
|----------------------------------|------7----|
|-7-------7-----8-7-------7-----10-|-8----7----|
|-7-------7-----8-7-------7-----10-|-8----5----|
|-7-7---7-7-7---8-7-7---7-7-7---10-|-8---------|


  S S S S S S S S S S S S S S S  S   S S S S S S S S Q  Q
|----------------------------------|-----------------------|
|----------------------------------|-----------------------|
|----------------------------------|-----------------------|
|-7-------7-----8-7-------7-----10-|-7-------7-----8-5--8--|
|-7-------7-----8-7-------7-----10-|-7-------7-----8-5--8--|
|-7-7---7-7-7---8-7-7---7-7-7---10-|-7-7---7-7-7---8-5--8--|


  S S S S S S S S S S S S S S S  S    H     Q  Q
|----------------------------------|--------------|
|----------------------------------|--------------|
|----------------------------------|--------------|
|-7-------7-----8-7-------7-----10-|-12----10--5--|
|-7-------7-----8-7-------7-----10-|-12----10--5--|
|-7-7---7-7-7---8-7-7---7-7-7---10-|-12----10--5--|


  S S S S S S E S S S S S S S S   S S E S S S S S E S Q
|-------------------------------|------------------------|
|-------------------------------|------------------------|
|-------------------------------|------------------------|
|-2-2---2-2-----2-2---2-2-2---2-|-2-----2-2---2-2---2-3--|
|-2-2---2-2-----2-2---2-2-2---2-|-2-----2-2---2-2---2-3--|
|-2-2---2-2-----2-2---2-2-2---2-|-2-----2-2---2-2---2-3--|


  Gtr I
  W                               H             Q     Q
|-------------------------------|---------------------1--|
|-------------------------------|---------------------1--|
|-------------------------------|------------------------|
|-------------------------------|------------------------|
|-------------------------------|------------------------|
|-------------------------------|------------------------|
|
| Gtr II
| S S S S S S E S S S S S S S S   S S E S S S S S E S Q
|-------------------------------|------------------------|
|-------------------------------|------------------------|
|-------------------------------|------------------------|
|-2-2---2-2-----2-2---2-2-2---2-|-2-----2-2---2-2---2-3--|
|-2-2---2-2-----2-2---2-2-2---2-|-2-----2-2---2-2---2-3--|
|-2-2---2-2-----2-2---2-2-2---2-|-2-----2-2---2-2---2-3--|


  Gtr II
  S S S S S S E S S S S S S S S   S S S S S S E S S S S S S S S
|-------------------------------|--------------------------------|
|-------------------------------|--------------------------------|
|-------------------------------|--------------------------------|
|-2-2---2-2-----2-2---2-2-2---2-|-2-2---2-2-----2-2---2-2-2---2--|
|-2-2---2-2-----2-2---2-2-2---2-|-2-2---2-2-----2-2---2-2-2---2--|
|-2-2---2-2-----2-2---2-2-2---2-|-2-2---2-2-----2-2---2-2-2---2--|


  S S E S S S S S E S Q    S S S S S S E S S S S S S S S
|------------------------|-------------------------------|
|------------------------|-------------------------------|
|------------------------|-------------------------------|
|-2-----2-2---2-2---2-3--|-2-2---2-2-----2-2---2-2-2---2-|
|-2-----2-2---2-2---2-3--|-2-2---2-2-----2-2---2-2-2---2-|
|-2-----2-2---2-2---2-3--|-2-2---2-2-----2-2---2-2-2---2-|


  S S E S S S S Q  Q    S S S S S S E S S S S S S S S
|---------------------|--------------------------------|
|------------------3--|--------------------------------|
|---------------5--2--|--------------------------------|
|-2-----2-2---2-5--0--|-2-2---2-2-----2-2---2-2-2---2--|
|-2-----2-2---2-3-----|-2-2---2-2-----2-2---2-2-2---2--|
|-2-----2-2---2-------|-2-2---2-2-----2-2---2-2-2---2--|


  S S E S S S S S E S Q    S S S S S S E S S S S S S S S
|------------------------|-------------------------------|
|------------------------|-------------------------------|
|------------------------|-------------------------------|
|-2-----2-2---2-2---2-3--|-2-2---2-2-----2-2---2-2-2---2-|
|-2-----2-2---2-2---2-3--|-2-2---2-2-----2-2---2-2-2---2-|
|-2-----2-2---2-2---2-3--|-2-2---2-2-----2-2---2-2-2---2-|


  S S E S S S S Q  Q    H.      Q    H    Q  Q    H    H
|---------------------|------------|------------|-----------|
|------------------3--|------------|------------|-----------|
|---------------5--2--|-2----------|------------|-----------|
|-2-----2-2---2-5--0--|-2-------5--|-7----3--5--|-7----5----|
|-2-----2-2---2-3-----|-0-------5--|-7----3--5--|-7----5----|
|-2-----2-2---2-------|---------5--|-7----3--5--|-7----5----|


  W          H.      Q    H    Q  Q    H     H
|----------|------------|------------|------------|
|----------|------------|------------|------------|
|----------|------------|------------|------------|
|-0--------|-7-------5--|-7----3--5--|-7----10----|
|-0--------|-7-------5--|-7----3--5--|-7----10----|
|-0--------|-7-------5--|-7----3--5--|-7----10----|


  W          W          W          W
|----------|----------|----------|------|
|----------|----------|----------|------|
|----------|----------|----------|------|
|-5--------|----------|----------|------|
|-5--------|----------|----------|------|
|-5--------|----------|----------|------|


  W          S S S S S S E S S S S S S S S   S S E S S S S Q  Q
|----------|-------------------------------|----------------------|
|----------|-------------------------------|----------------------|
|----------|-------------------------------|----------------------|
|----------|-2-2---2-2-----2-2---2-2-2---2-|-2-----2-2---2-5--0---|
|----------|-2-2---2-2-----2-2---2-2-2---2-|-2-----2-2---2-5--0---|
|----------|-2-2---2-2-----2-2---2-2-2---2-|-2-----2-2---2-5--0---|


  S S S S S S E S S S S S S S S   S S E S S S S Q  Q
|-------------------------------|----------------------|
|-------------------------------|----------------------|
|-------------------------------|---------------2------|
|-2-2---2-2-----2-2---2-2-2---2-|-2-----2-2---2-2--0---|
|-2-2---2-2-----2-2---2-2-2---2-|-2-----2-2---2-0--0---|
|-2-2---2-2-----2-2---2-2-2---2-|-2-----2-2---2----0---|


  S S S S S S E S S S S S S S S   S S E S S S S Q  Q
|-------------------------------|----------------------|
|-------------------------------|----------------------|
|-------------------------------|----------------------|
|-5-5---5-5-----5-5---5-5-5---5-|-5-----5-5---5-8--3---|
|-5-5---5-5-----5-5---5-3-3---3-|-5-----5-5---5-8--3---|
|-5-5---5-5-----5-5---5-5-5---5-|-5-----5-5---5-8--3---|


  S S S S S S E S S S S S S S S   S S E S S S S Q  Q
|-------------------------------|----------------------|
|-------------------------------|----------------------|
|-------------------------------|---------------5------|
|-5-5---5-5-----5-5---5-5-5---5-|-5-----5-5---5-5--3---|
|-5-5---5-5-----5-5---5-3-3---3-|-5-----5-5---5-3--3---|
|-5-5---5-5-----5-5---5-5-5---5-|-5-----5-5---5----3---|


  Gtr I
  W                               H             Q   Q
|-------------------------------|---------------3--10---|
|-------------------------------|---------------3--10---|
|-------------------------------|-----------------------|
|-------------------------------|-----------------------|
|-------------------------------|-----------------------|
|-------------------------------|-----------------------|
|
| Gtr II
| S S S S S S E S S S S S S S S   S S E S S S S Q   Q
|-------------------------------|-----------------------|
|-------------------------------|-----------------------|
|-------------------------------|-----------------------|
|-2-2---2-2-----2-2---2-2-2---2-|-2-----2-2---2-5---0---|
|-2-2---2-2-----2-2---2-2-2---2-|-2-----2-2---2-5---0---|
|-2-2---2-2-----2-2---2-2-2---2-|-2-----2-2---2-5---0---|


  Gtr II
  S S S S S S E S S S S S S S S   S S E S S S S Q  Q
|-------------------------------|----------------------|
|-------------------------------|----------------------|
|-------------------------------|---------------2------|
|-2-2---2-2-----2-2---2-2-2---2-|-2-----2-2---2-2--0---|
|-2-2---2-2-----2-2---2-2-2---2-|-2-----2-2---2-0--0---|
|-2-2---2-2-----2-2---2-2-2---2-|-2-----2-2---2----0---|


  S S S S S S E S S S S S S S S   S S E S S S S Q  Q
|-------------------------------|----------------------|
|-------------------------------|----------------------|
|-------------------------------|----------------------|
|-5-5---5-5-----5-5---5-5-5---5-|-5-----5-5---5-8--3---|
|-5-5---5-5-----5-5---5-3-3---3-|-5-----5-5---5-8--3---|
|-5-5---5-5-----5-5---5-5-5---5-|-5-----5-5---5-8--3---|


  S S S S S S E S S S S S S S S   S S E S S S S Q  Q
|-------------------------------|----------------------|
|-------------------------------|----------------------|
|-------------------------------|---------------5------|
|-5-5---5-5-----5-5---5-5-5---5-|-5-----5-5---5-5--3---|
|-5-5---5-5-----5-5---5-3-3---3-|-5-----5-5---5-3--3---|
|-5-5---5-5-----5-5---5-5-5---5-|-5-----5-5---5----3---|


  S S S S S S S S S S S S S S S S   S S S S S S S S Q  Q
|---------------------------------|-----------------------|
|---------------------------------|-----------------------|
|-2-------2-----3-2-------2-----5-|-2-------2-----3-------|
|-2-------2-----3-2-------2-----5-|-2-------2-----3-5--8--|
|-0-0---0-0-0---1-0-0---0-0-0---3-|-0-0---0-0-0---1-5--8--|
|---------------------------------|-----------------5--8--|


  S S S S S S S S S S S S S S S  S   H    H
|----------------------------------|-----------|
|----------------------------------|-----------|
|----------------------------------|------7----|
|-7-------7-----8-7-------7-----10-|-8----7----|
|-7-------7-----8-7-------7-----10-|-8----5----|
|-7-7---7-7-7---8-7-7---7-7-7---10-|-8---------|


  S S S S S S S S S S S S S S S  S   S S S S S S S S Q  Q
|----------------------------------|-----------------------|
|----------------------------------|-----------------------|
|----------------------------------|-----------------------|
|-7-------7-----8-7-------7-----10-|-7-------7-----8-5--8--|
|-7-------7-----8-7-------7-----10-|-7-------7-----8-5--8--|
|-7-7---7-7-7---8-7-7---7-7-7---10-|-7-7---7-7-7---8-5--8--|


  S S S S S S S S S S S S S S S  S    H     Q  Q    Q  Q  Q  Q
|----------------------------------|--------------|--------------|
|----------------------------------|--------------|--------------|
|----------------------------------|--------------|--------------|
|-7-------7-----8-7-------7-----10-|-12----10--5--|-7--2--3--5---|
|-7-------7-----8-7-------7-----10-|-12----10--5--|-7--2--3--5---|
|-7-7---7-7-7---8-7-7---7-7-7---10-|-12----10--5--|-7--2--3--5---|


  E S S S S E S S S S E S S   S S E S S S S Q   Q    E S S S S E S S S S E S S
|---------------------------|----------------------|---------------------------|
|---------------------------|----------------------|---------------------3-----|
|---------------------------|----------------------|---------------------2-----|
|-7---------7---------7-----|-----7---------7--10--|-2---------2---------0-0-0-|
|-7---------7---------7-----|-----7---------7--10--|-2---------2---------------|
|-7-7-7-7-7-7-7-7-7-7-7-7-7-|-7-7-7-7-7-7-7-7--10--|-2-2-2-2-2-2-2-2-2-2-------|


  S S E S S S S Q  Q    E S S S S E S S S S E S S   S S E S S S S Q  Q
|---------------------|---------------------------|---------------------|
|-----3---------------|---------------------------|---------------------|
|-----2---------5--4--|-2---------2---------2-----|-----2---------2--5--|
|-0-0-0-0-0-0-0-5--5--|-2---------2---------2-----|-----2---------2--5--|
|---------------3--2--|-0-0-0-0-0-0-0-0-0-0-0-0-0-|-0-0-0-0-0-0-0-0--3--|
|---------------------|---------------------------|---------------------|


  E S S S S E S S S S E S S   S S E S S S S Q  Q    E S S S S E S S S S E S S
|---------------------------|---------------------|---------------------------|
|---------------------3-----|-----3---------------|---------------------------|
|---------------------2-----|-----2---------5-----|---------------------------|
|-3---------3---------0-0-0-|-0-0-0-0-0-0-0-5--5--|-7---------7---------7-----|
|-3---------3---------------|---------------3--5--|-7---------7---------7-----|
|-3-3-3-3-3-3-3-3-3-3-------|------------------5--|-7-7-7-7-7-7-7-7-7-7-7-7-7-|


  S S E S S S S Q   Q    E S S S S E S S S S E S S   S S E S S S S Q  Q
|----------------------|---------------------------|---------------------|
|----------------------|---------------------3-----|-----3---------------|
|----------------------|---------------------2-----|-----2---------5--4--|
|-----7---------7--10--|-2---------2---------0-0-0-|-0-0-0-0-0-0-0-5--5--|
|-----7---------7--10--|-2---------2---------------|---------------3--2--|
|-7-7-7-7-7-7-7-7--10--|-2-2-2-2-2-2-2-2-2-2-------|---------------------|


  E S S S S E S S S S E S S   S S E S S S S Q  Q    E S S S S E S S S S E S S
|---------------------------|---------------------|---------------------------|
|---------------------------|---------------------|---------------------3-----|
|-2---------2---------2-----|-----2---------2--5--|---------------------2-----|
|-2---------2---------2-----|-----2---------2--5--|-3---------3---------0-0-0-|
|-0-0-0-0-0-0-0-0-0-0-0-0-0-|-0-0-0-0-0-0-0-0--3--|-3---------3---------------|
|---------------------------|---------------------|-3-3-3-3-3-3-3-3-3-3-------|


                        Q=75          Q=71
  S S E S S S S Q  Q    Q  Q  Q  Q    W          +W
|---------------------|-------------|----------|--------*|
|-----3---------------|-------------|----------|--------*|
|-----2---------5-----|-------------|----------|--------*|
|-0-0-0-0-0-0-0-5--5--|-7--2--3--5--|-7--------|-(7)----*|
|---------------3--5--|-7--2--3--5--|-7--------|-(7)----*|
|------------------5--|-7--2--3--5--|-7--------|-(7)----*|



Duration Legend
---------------
W - whole; H - half; Q - quarter; E - 8th; S - 16th; T - 32nd; X - 64th; a - acciaccatura
+ - note tied to previous; . - note dotted; .. - note double dotted
Uncapitalized letters represent notes that are staccato (1/2 duration)
Irregular groupings are notated above the duration line
Duration letters will always appear directly above the note/fret number it represents the
duration for.  Duration letters with no fret number below them represent rests.  Multi-
bar rests are notated in the form Wxn, where n is the number of bars to rest for.  Low
melody durations appear below the staff

Tablature Legend
----------------
 h   - hammer-on
 p   - pull-off
 b   - bend
 pb  - pre-bend
 r   - bend release (if no number after the r, then release immediately)
 /\  - slide into or out of (from/to "nowhere")
 s   - legato slide
 S   - shift slide
 - natural harmonic
[n]  - artificial harmonic
n(n) - tapped harmonic
 ~   - vibrato
 tr  - trill
 T   - tap
 TP  - trem. picking
 PM  - palm muting
\n/  - tremolo bar dip; n = amount to dip
 \n  - tremolo bar down
 n/  - tremolo bar up
/n\  - tremolo bar inverted dip
 =   - hold bend; also acts as connecting device for hammers/pulls
 <> - volume swell (louder/softer)
 x   - on rhythm slash represents muted slash
 o   - on rhythm slash represents single note slash

Misc Legend
-----------
 |  - bar
||  - double bar
||o - repeat start
o|| - repeat end
*|  - double bar (ending)
 :  - bar (freetime)
 $  - Segno
 &  - Coda
Tempo markers -  = BPM(8/16=s8/s16), where s8 = swing 8ths, s16 = swing 16ths

comments
We did not receive enough feedback on this tab! Please rate:
print report bad tab
1 2 3 4 5
I want to post or [tab]
guest
You may want to rate the tab now too:
select rating
Please do not post tabs as comments. Select "correction" instead!