Oops, an error
Loading. Please wait.

Amaranth Tab

ver2
ver2

Intro

Whole song

More versions @911Tabs.com
14,757 views 18 this week
1 commentread comment
1 2 3 4 5
accurate
x 5
Autoscroll
+/-
esc
set tempo
stop
Contributor
NEW! There's an official Ultimate Guitar app which is ideal
for learning songs when you're away from computer. Get the app
WARNING: You are trying to view
                                    content from Ultimate-Guitar.com
                                    in an unauthorized application,
                                    which is prohibited.

                                    Please use an official Ultimate
                                    Guitar Tabs application for iPhone,
                                    iPad or Android to access legitimate
                                    chords, guitar, bass, and drum tabs
                                    from Ultimate-Guitar.com database.

                                    Type "ultimate guitar tabs" in Apple
                                    App Store's or Android Market's
                                    search to find the application.
Song: Amaranth
Group: Nightwish
Album: Dark Passion Play

Tabbed by jamie taplin

Palm Mute: M * * *
Slide Up: /
Slide Down: \
Vibrate: ~


Piano Intro (0:00)
Guitar Intro (0:15)
|---|----------------------------------------------------------------|
|---|----------------------------------------------------------------|
|---|-------------------------5---5-------------------5-5---5-3---3--|
|-0>|-0-0---0-0---0---3-3---3-5---5-0-0-0---0-0---0---5-5---5-3---3--|
|-0>|-0-0---0-0---0---3-3---3-3---3-0-0-0---0-0---0---3-5---3-1---1--|
|-0>|-0-0---0-0---0---3-3---3-------0-0-0---0-0---0------------------|


|--------------------------------------------------------------------|
|--------------------------------------------------------------------|
|---------------------------5---5-3-3-3-3-3-3-3-3--------------------|
|-0-0-0---0-0---0---3-3---3-5---5-3-3-3-3-3-3-3-3-1-1-1-1-1-1-1-1----|
|-0-0-0---0-0---0---3-3---3-3---3-1-1-1-1-1-1-1-1-1-1-1-1-1-1-1-1----|
|-0-0-0---0-0---0---3-3---3-----------------------1-1-1-1-1-1-1-1----|
                                                M * *

|---------------------------------------------------------------------|
|---------------------------------------------------------------------|
|---------------------------------------------------------------------|
|---6-6---5-5---3---0-1-0---0-1-0-------------------------------------|
|---6-6---5-5---3---0-1-0---0-1-0-------------------------------------|
|-0-6-6---5-5---3---0-1-0---0-1-0-------------------------------------|
M *

Verse I (0:33)
|---------------------------------------------------------------------|
|---------------------------------------------------------------------|
|---------------------------------------------------------------------|
|---------------------------------------------------------------------|
|---------------------------------------------------------------------|
|-0-0-0-0-0-0-0-0-0-0-0-0-0-0-0-0-0-0-0-0-0-0-0-0-0-0-0-0-0-0-0-0-----|
M * * * * * * * * * * * * * * * * * * * * * * * * * * * * * * * *

|---------------------------------------------------------------------|
|---------------------------------------------------------------------|
|---------------------------------------------------------------------|
|--------------------------------------------/5\3-2-2-2-2-2-2-2-2-----|
|--------------------------------------------/5\3-2-2-2-2-2-2-2-2-----|
|-0-0-0-0-0-0-0-0-0-0-0-0-0-0-0-0-0-0-0-0-0-0/5\3-2-2-2-2-2-2-2-2-----|
M * * * * * * * * * * * * * * * * * * * * * *

|---------------------------------------------------------------------|
|---------------------------------------------------------------------|
|---------------------------------------------------------------------|
|----/3-0----------------------------/5\3-----------------------------|
|----/3-0----------------------------/5\3-----------------------------|
|-0-0/3-0-0-0-0-0-0-0-0-0-0-0-0-0-0-0/5\3-0-0-0-0-0-0-0-0-0-0-0-0-----|
M * *     * * * * * * * * * * * * * *     * * * * * * * * * * * *

|---------------------------------------------------------------------|
|---------------------------------------------------------------------|
|---------------------------------------------------------------------|
|----/5-5----------------------------/5-0----/5\3-2-2-2-2-2-2-2-2-----|
|----/5-5----------------------------/5-0----/5\3-2-2-2-2-2-2-2-2-----|
|-0-0/5-5-0-0-0-0-0-0-0-0-0-0-0-0-0-0/5-0-0-0/5\3-2-2-2-2-2-2-2-2-----|
M * *     * * * * * * * * * * * * * *     * *

Lead In (1:03)
|---------------------------------------------------------------------|
|---------------------------------------------------------------------|
|---------------------------------------------------------------------|
|-3-5---3-5-5/\-3-0-0-0-0-0-0-0-0-3-5---3-5-5/\-3-1-1-1-1-1-1-1-1-----|
|-3-5---3-5-5/\-3-0-0-0-0-0-0-0-0-3-5---5-5-5/\-3-1-1-1-1-1-1-1-1-----|
|-3-5---3-5-5/\-3-0-0-0-0-0-0-0-0-3-5---3-5-5/\-3-1-1-1-1-1-1-1-1-----|

Chorus I (1:11)
|---------------------------------------------------------------------|
|---------------------------------------------------------------------|
|-----------3---3-----------5---5-----------3---3-----------5---5-----|
|-0-0-0---0-3---3---3-3---3-5---5-0-0-0---0-3---3---3-3---3-5---5-----|
|-0-0-0---0-1---1---3-3---3-3---3-0-0-0---0-1---1---3-3---3-3---3-----|
|-0-0-0---0---------3-3---3-------0-0-0---0---------3-3---3-----------|

|---------------------------------------------------------------------|
|---------------------------------------------------------------------|
|-----------3---3-----------5---5-3-3-3-3-3-3-3-3---------------------|
|-0-0-0---0-3---3---3-3---3-3---5-3-3-3-3-3-3-3-3-1-1-1-1-1-1-1-1-----|
|-0-0-0---0-1---1---3-3---3-3---3-1-1-1-1-1-1-1-1-1-1-1-1-1-1-1-1-----|
|-0-0-0---0---------3-3---3-----------------------1-1-1-1-1-1-1-1-----|

|---------------------------------------------------------------------|
|---------------------------------------------------------------------|
|---------------------------------------------------------------------|
|---6-6---5-5---3---0-1-0---0-1-0---6-6---5-5---3---0-1-0---0-1-0-----|
|---6-6---5-5---3---0-1-0---0-1-0---6-6---5-5---3---0-1-0---0-1-0-----|
|-0-6-6---5-5---3---0-1-0---0-1-0-0-6-6---5-5---3---0-1-0---0-1-0-----|
M *                               *

Verse II (1:33)
|---------------------------------------------------------------------|
|---------------------------------------------------------------------|
|-----------------7-----7~~~~---------------------3-----3~~~~---------|
|----/3-0---------7-----7~~~~--------/5\3---------3-----3~~~~---------|
|----/3-0---------5-----5~~~~--------/5\3---------1-----1~~~~---------|
|-0-0/3-0-0-0-0-0-----------------0-0/5\3-0-0-0-0---------------------|
M * *     * * * *                 * *     * * * *

|---------------------------------------------------------------------|
|---------------------------------------------------------------------|
|-----------------5-----5~~~~-----------------------------------------|
|----/5-5---------5-----5~~~~--------/5-0----/5\3-2-2-2-2-2-2-2-2-----|
|----/5-5---------3-----3~~~~--------/5-0----/5\3-2-2-2-2-2-2-2-2-----|
|-0-0/5-5-0-0-0-0-----------------0-0/5-0-0-0/5\3-2-2-2-2-2-2-2-2-----|
M * *     * * * *                 * *

Lead In (1:48)
|---------------------------------------------------------------------|
|---------------------------------------------------------------------|
|---------------------------------------------------------------------|
|-3-5---3-5-5/\-3-0-0-0-0-0-0-0-0-3-5---3-5-5/\-3-1-1-1-1-1-1-1-1-----|
|-3-5---3-5-5/\-3-0-0-0-0-0-0-0-0-3-5---3-5-5/\-3-1-1-1-1-1-1-1-1-----|
|-3-5---3-5-5/\-3-0-0-0-0-0-0-0-0-3-5---3-5-5/\-3-1-1-1-1-1-1-1-1-----|

Chorus II (1:56)
|---------------------------------------------------------------------|
|---------------------------------------------------------------------|
|-----------3---3-----------5---5-----------3---3-----------5---5-----|
|-0-0-0---0-3---3---3-3---3-5---5-0-0-0---0-3---3---3-3---3-5---5-----|
|-0-0-0---0-1---1---3-3---3-3---3-0-0-0---0-1---1---3-3---3-3---3-----|
|-0-0-0---0---------3-3---3-------0-0-0---0---------3-3---3-----------|

|---------------------------------------------------------------------|
|---------------------------------------------------------------------|
|-----------3---3-----------5---5-3-3-3-3-3-3-3-3---------------------|
|-0-0-0---0-3---3---3-3---3-3---5-3-3-3-3-3-3-3-3-1-1-1-1-1-1-1-1-----|
|-0-0-0---0-1---1---3-3---3-3---3-1-1-1-1-1-1-1-1-1-1-1-1-1-1-1-1-----|
|-0-0-0---0---------3-3---3-----------------------1-1-1-1-1-1-1-1-----|

|---------------------------------------------------------------------|
|---------------------------------------------------------------------|
|-----------3---3-----------5---5-----------3---3-----------5---5-----|
|-0-0-0---0-3---3---3-3---3-5---5-0-0-0---0-3---3---3-3---3-5---5-----|
|-0-0-0---0-1---1---3-3---3-3---3-0-0-0---0-1---1---3-3---3-3---3-----|
|-0-0-0---0---------3-3---3-------0-0-0---0---------3-3---3-----------|


|---------------------------------------------------------------------|
|---------------------------------------------------------------------|
|-----------3---3-----------5---5-3-3-3-3-3-3-3-3-5-5-5-5-5-5-5-5-----|
|-0-0-0---0-3---3---3-3---3-5---5-3-3-3-3-3-3-3-3-5-5-5-5-5-5-5-5-----|
|-0-0-0---0-1---1---3-3---3-3---3-1-1-1-1-1-1-1-1-3-3-3-3-3-3-3-3-----|
|-0-0-0---0---------3-3---3-------------------------------------------|

|---------------------------------------------------------------------|
|---------------------------------------------------------------------|
|---------------------------------------------------------------------|
|---6-6---5-5---3---0-1-0---0-1-0---6-6---5-5---5---0-1-0---0-1-0-----|
|---6-6---5-5---3---0-1-0---0-1-0---6-6---5-5---5---0-1-0---0-1-0-----|
|-0-6-6---5-5---3---0-1-0---0-1-0---6-6---5-5---3---0-1-0---0-1-0-----|
M *                               

Bridge (2:33)
|-----------------------------------------------------------------------|
|-----------------------------------------------------------------------|
|-----------------------------------------------------------------------|
|-0-0-1-0--0-0-1-0--0-0-1-0--0-0-1-3--0-0-1-0--0-0-1-0--0-0-1-0--0-0-1-3|
|-0-0-1-0--0-0-1-0--0-0-1-0--0-0-1-3--0-0-1-0--0-0-1-0--0-0-1-0--0-0-1-3|
|-0-0-1-0--0-0-1-0--0-0-1-0--0-0-1-3--0-0-1-0--0-0-1-0--0-0-1-0--0-0-1-3|
M * *      * *      * *      * *        

|-----------------------------------------------------------------------|
|-----------------------------------------------------------------------|
|-----------------------------------------------------------------------|
|-0-0-1-0--0-0-1-0--0-0-1-0--0-0-1-3--0-0-1-0--0-0-1-0--0-0-1-0--0-0-1-3|
|-0-0-1-0--0-0-1-0--0-0-1-0--0-0-1-3--0-0-1-0--0-0-1-0--0-0-1-0--0-0-1-3|
|-0-0-1-0--0-0-1-0--0-0-1-0--0-0-1-3--0-0-1-0--0-0-1-0--0-0-1-0--0-0-1-3|
M *                               *

|-----------------------------------------------------------------------|
|-----------------------------------------------------------------------|
|-----------------------------------------------------------------------|
|-0-0-1-0--0-0-1-0--0-0-1-0--0-0-1-3--0-0-1-0--0-0-1-0--0-0-1-0--0-0-1-3|
|-0-0-1-0--0-0-1-0--0-0-1-0--0-0-1-3--0-0-1-0--0-0-1-0--0-0-1-0--0-0-1-3|
|-0-0-1-0--0-0-1-0--0-0-1-0--0-0-1-3--0-0-1-0--0-0-1-0--0-0-1-0--0-0-1-3|
M *                               *

Piano Bridge (2:56)
Last Measure
|-------------------|
|-------------------|
|-------------------|
|-------------2---2-|
|-------------2---2-|
|-------------2---2-|

Chorus III (3:11)
|---------------------------------------------------------------------|
|---------------------------------------------------------------------|
|-----------5---5-----------7---7-----------5---5-----------7---7-----|
|-2-2-2---2-5---5---5-5---5-7---7-2-2-2---2-5---5---5-5---5-7---7-----|
|-2-2-2---2-3---3---5-5---5-5---5-2-2-2---2-3---3---5-5---5-5---5-----|
|-2-2-2---2---------5-5---5-------2-2-2---2---------5-5---5-----------|

|---------------------------------------------------------------------|
|---------------------------------------------------------------------|
|-----------5---5-----------7---7-5-5-5-5-5-5-5-5---------------------|
|-2-2-2---2-5---5---5-5---5-7---7-5-5-5-5-5-5-5-5-3-3-3-3-3-3-3-3-----|
|-2-2-2---2-3---3---5-5---5-5---5-3-3-3-3-3-3-3-3-3-3-3-3-3-3-3-3-----|
|-2-2-2---2---------5-5---5-----------------------3-3-3-3-3-3-3-3-----|

|---------------------------------------------------------------------|
|---------------------------------------------------------------------|
|-----------5---5-----------7---7-----------5---5-----------7---7-----|
|-2-2-2---2-5---5---5-5---5-7---7-2-2-2---2-5---5---5-5---5-7---7-----|
|-2-2-2---2-3---3---5-5---5-5---5-2-2-2---2-3---3---5-5---5-5---5-----|
|-2-2-2---2---------5-5---5-------2-2-2---2---------5-5---5-----------|

|---------------------------------------------------------------------|
|---------------------------------------------------------------------|
|-----------5---5-----------7---7-5-5-5-5-5-5-5-5---------------------|
|-2-2-2---2-5---5---5-5---5-7---7-5-5-5-5-5-5-5-5-0-0-0-0-0-0-0-0-----|
|-2-2-2---2-3---3---5-5---5-5---5-3-3-3-3-3-3-3-3-0-0-0-0-0-0-0-0-----|
|-2-2-2---2---------5-5---5-----------------------0-0-0-0-0-0-0-0-----|

Outro (3:41)
|---------------------------------------------------------------------|
|---------------------------------------------------------------------|
|---------------------------------------------------------------------|
|-0-6-6---5-5---3-3-0-1-0-0-0-1-0-0-6-6---5-5---3---0-1-0---0-1-0-----|
|-0-6-6---5-5---3-3-0-1-0-0-0-1-0-0-6-6---5-5---3---0-1-0---0-1-0-----|
|-0-6-6-0-5-5-0-3-3-0-1-0-0-0-1-0-0-6-6-0-5-5-0-3---0-1-0---0-1-0-----|

comments
print report bad tab
1 comment total.
0 reply
Atomic_Sponge wrote on September 22 2009, 05:06 pm

Nice job copying and pasting the one I put up. Fucker.

I want to post or [tab]
guest
You may want to rate the tab now too:
select rating
Please do not post tabs as comments. Select "correction" instead!