Oops, an error
Loading. Please wait.

Bare Grace Misery Tab

ver2
ver2

Whole song

More versions @911Tabs.com
685 views 1 this week
no commentswrite comment
1 2 3 4 5
please rate
Autoscroll
+/-
esc
set tempo
stop
Contributor
WARNING: You are trying to view
                                    content from Ultimate-Guitar.com
                                    in an unauthorized application,
                                    which is prohibited.

                                    Please use an official Ultimate
                                    Guitar Tabs application for iPhone,
                                    iPad or Android to access legitimate
                                    chords, guitar, bass, and drum tabs
                                    from Ultimate-Guitar.com database.

                                    Type "ultimate guitar tabs" in Apple
                                    App Store's or Android Market's
                                    search to find the application.
#----------------------------------PLEASE NOTE---------------------------------#
#This file is the author's own work and represents their interpretation of the #
#song. You may only use this file for private study, scholarship, or research. #
#------------------------------------------------------------------------------#

BARE GRACE MISERY
As recorded by Nightwish
(From the 2000 Album WISHMASTER)

Transcribed by Hard 'n' Heavy
        

Words and Music by Tuomas Holopainen
Arranged by Nightwish

Gtr I (E A D G B E) - 'Guitar'
Gtr II (E A D G B E) - 'String Ensemble'
Gtr III (E A D G B E) - 'Choir Aahs'

 Intro
  Q=150
            A5                                        F5
 4/4
  Gtr I
                    PM  PM    PM        PM  PM      PM
  H    Q  E E   +E  E E E E E E E   +E  E E E  E  E E E   +E  E E E E E E E
|-------------|-------------------|---------------------|--------------------|
|-------------|-------------------|---------------------|--------------------|
|-------------|-------------------|---------------------|--------------------|
|-----------7-|-------7---7-7---7-|-(7)---7----7--7---3-|-(3)---3---2---3----|
|-----------7-|-(7)---7---7-7---7-|-(7)---7----7--7---3-|-(3)-3--------------|
|-----------5-|-(5)-5-5-5-5-5-5-5-|-(5)-5-5-5--5--5-5-1-|-(1)-1---1---1---1--|
|
| Gtr II
| W              Q    q   E E Q      Q    q    E  E Q      W
|-------------|-------------------|---------------------|--------------------|
|-------------|-------------------|---------------------|--------------------|
|-------------|-------7---7-5-----|-------4----4--5-----|--------------------|
|-------------|-------7---7-7-----|-------7----7--7-----|--------------------|
|-------------|-------------------|---------------------|--------------------|
|-------------|-------------------|---------------------|--------------------|
|
| Gtr III
| H    Q  E E   +W                  +H        +Q.     E   +H        H
|-----------5-|-(5)---------------|-(5)-------(5)-------|--------------------|
|-------------|-------------------|-------------------3-|-(3)-------1--------|
|-------------|-------------------|---------------------|--------------------|
|-------------|-------------------|---------------------|--------------------|
|-------------|-------------------|---------------------|--------------------|
|-------------|-------------------|---------------------|--------------------|


                A5                                      G#5
                        PM  PM    PM        PM  PM    PM
  E E E E E E E E   +E  E E E E E E E   +E  E E E E E E E   +W
|-----------------|-------------------|-------------------|-------------|
|-----------------|-------------------|-------------------|-------------|
|-0---------------|-------------------|-------------------|-------------|
|-2---3---2-3-2-7-|-------7---7-7---7-|-(7)---7---7-7---6-|-(6)---------|
|---------------7-|-(7)---7---7-7---7-|-(7)---7---7-7---6-|-(6)---------|
|---1---1-------5-|-(5)-5-5-5-5-5-5-5-|-(5)-5-5-5-5-5-5-4-|-(4)---------|
|
| W                  Q    q   E E Q      Q    q   E E Q      W
|-----------------|-------------------|-------------------|-------------|
|-----------------|-------------------|-------------------|-------------|
|-----------------|-------7---7-5-----|-------4---4-5-----|-------------|
|-----------------|-------7---7-7-----|-------7---7-7-----|-------------|
|-----------------|-------------------|-------------------|-------------|
|-----------------|-------------------|-------------------|-------------|
|
| H       H          W                   H        Q   E E   +H     H
|-----------------|-------------------|-----------------4-|-(4)---------|
|-----------------|-------------------|-----------------5-|-(5)----3----|
|-4-------5-------|-------------------|-------------------|-------------|
|-----------------|-------------------|-------------------|-------------|
|-----------------|-------------------|-------------------|-------------|
|-----------------|-------------------|-------------------|-------------|


               F5                             A5
  +H     +Q.   E   +W            +H     +Q.   E   +W
|----------------|-------------|----------------|-------------|
|----------------|-------------|----------------|-------------|
|----------------|-------------|----------------|-------------|
|-(6)----(6)---3-|-(3)---------|-(3)----(3)---7-|-(7)---------|
|-(6)----(6)---3-|-(3)---------|-(3)----(3)---7-|-(7)---------|
|-(4)----(4)---1-|-(1)---------|-(1)----(1)---5-|-(5)---------|
|
| Gtr III
|  H      Q.   E   +H     H       H      Q.   E   +H     H
|--------------5-|-(5)---------|----------------|-------------|
|--------------6-|-(6)----5----|--3------5----6-|-(6)----5----|
|--5------4----7-|-(7)----5----|--4------5----7-|-(7)----5----|
|----------------|-------------|----------------|-------------|
|----------------|-------------|----------------|-------------|
|----------------|-------------|----------------|-------------|


               F5                             G5
                                                          PM    PM
  +H     +Q.   E   +W            +H     +Q.   E   +E  E E E E E E E
|----------------|-------------|----------------|-------------------|
|----------------|-------------|----------------|-------------------|
|----------------|-------------|----------------|-------------------|
|-(7)----(7)---3-|-(3)---------|-(3)----(3)-----|-----5-5---5-5---5-|
|-(7)----(7)---3-|-(3)---------|-(3)----(3)---5-|-(5)-5-5---5-5---5-|
|-(5)----(5)---1-|-(1)---------|-(1)----(1)---3-|-(3)-3-3-3-3-3-3-3-|
|
|  H      Q.   E   +H     H       H      Q.   E   +W
|----------------|-------------|--------------3-|-(3)---------------|
|--3------5----6-|-(6)----5----|--3------5----3-|-(3)---------------|
|--4------5----7-|-(7)----5----|--4------5----4-|-(4)---------------|
|----------------|-------------|----------------|-------------------|
|----------------|-------------|----------------|-------------------|
|----------------|-------------|----------------|-------------------|


                    Verse
                  $
                A5   N.C.
                     Gtr II
    PM    PM
  E E E E E E E E     E E  E  E  E E  E E
|-----------------||----------------------|
|-----------------||-13---10-12-13---10---|
|---------------2-||----9----------9----9-|
|-5---5-5---5-5-2-||----------------------|
|-5---5-5---5-5-0-||----------------------|
|-3-3-3-3-3-3-3---||----------------------|


   E E  E  E  E E  E E    E E E  E  E  E E  E
|----------------------|-12---8-10-12-12-8-12-|
|-13---10-12-13---10---|----8-----------------|
|----9----------9----9-|----------------------|
|----------------------|----------------------|
|----------------------|----------------------|
|----------------------|----------------------|


  E  E  E  E E E E  E    E E  E  E  E E  E E
|-8----12-10-8---7-10-|----------------------|
|---12---------8------|-13---10-12-13---10---|
|---------------------|----9----------9----9-|
|---------------------|----------------------|
|---------------------|----------------------|
|---------------------|----------------------|


   E E  E  E  E E  E E    E E E  E  E E E E
|----------------------|--------------------|
|-13---10-12-13---10---|-12---8-10-12---8---|
|----9----------9----9-|----9---------9---9-|
|----------------------|--------------------|
|----------------------|--------------------|
|----------------------|--------------------|


   E  E  E  E  E  E  E  E    E E  E  E  E E  E E
|-------------------------|----------------------|
|-10----10----------10-12-|-13---10-12-13---10---|
|----------12-11-12-------|----9----------9----9-|
|----12-------------------|----------------------|
|-------------------------|----------------------|
|-------------------------|----------------------|


   E  E  E  E  E  E  E  E    E E E  E  E E E  E
|----------------------10-|-12---8-10-12---8-10-|
|-13-12-10-12-13-12-13----|----8---------8------|
|-------------------------|---------------------|
|-------------------------|---------------------|
|-------------------------|---------------------|
|-------------------------|---------------------|


   E  E  E  E  E  E  E  E    E E  E  E  E E  E E
|-12-15-------------------|----------------------|
|-------12-13-13----12-13-|-13---10-12-13---10---|
|----------------12-------|----9----------9----9-|
|-------------------------|----------------------|
|-------------------------|----------------------|
|-------------------------|----------------------|


   E E  E  E  E E  E E    E E E  E  E E E E
|----------------------|--------------------|
|-13---10-12-13---10---|-12---8-10-12---8---|
|----9----------9----9-|----9---------9---9-|
|----------------------|--------------------|
|----------------------|--------------------|
|----------------------|--------------------|


                         Pre-Chorus
                To Coda
                          A5                  N.C.
                          Gtr I
                                                     ~~~
   E E  E E  E E  E  E    W          +H.      E E    H.      E E
|----------------------||----------|--------------|--------------|
|-10---10-8----8-10-12-||----------|--------------|--------------|
|----7------11---------||-2--------|-(2)----------|--------------|
|----------------------||-2--------|-(2)----------|--------------|
|----------------------||-0--------|-(0)------0-2-|-[3]------2-0-|
|----------------------||----------|--------------|--------------|


  G5         A5                      E5         D5
  W          W          +W           H    +Q.   E
|----------|----------|------------|--------------|
|----------|----------|------------|--------------|
|----------|----------|------------|------------7-|
|-5--------|-7--------|-(7)--------|-2----(2)---7-|
|-5--------|-7--------|-(7)--------|-2----(2)---5-|
|-3--------|-5--------|-(5)--------|-0----(0)-----|


                    Chorus
                A5
                         PM  PM    PM
  +H     +Q.    E    +E  E E E E E E E
|-----------------||-------------------|
|-----------------||-------------------|
|-(7)----(7)------||-------------------|
|-(7)----(7)----7-||-(7)---7---7-7---7-|
|-(5)----(5)----7-||-(7)---7---7-7---7-|
|---------------5-||-(5)-5-5-5-5-5-5-5-|
|
| Gtr II
|  W                  Q    q   E E Q
|-----------------||-------------------|
|-----------------||-------------------|
|-----------------||-------7---7-5-----|
|-----------------||-------7---7-7-----|
|-----------------||-------------------|
|-----------------||-------------------|
|
| Gtr III
|  H      Q   E E    +W
|---------------5-||-(5)---------------|
|-----------------||-------------------|
|-----------------||-------------------|
|-----------------||-------------------|
|-----------------||-------------------|
|-----------------||-------------------|


                    F5
      PM  PM      PM
  +E  E E E  E  E E E   +E  E E E E E E E
|---------------------|-------------------|
|---------------------|-------------------|
|---------------------|-------------------|
|-(7)---7----7--7---3-|-(3)---3---2---3---|
|-(7)---7----7--7---3-|-(3)-3-------------|
|-(5)-5-5-5--5--5-5-1-|-(1)-1---1---1---1-|
|
|  Q    q    E  E Q      W
|---------------------|-------------------|
|---------------------|-------------------|
|-------4----4--5-----|-------------------|
|-------7----7--7-----|-------------------|
|---------------------|-------------------|
|---------------------|-------------------|
|
| +H        +Q.     E   +H        H
|-(5)-------(5)-------|-------------------|
|-------------------3-|-(3)---------------|
|---------------------|-----------5-------|
|---------------------|-------------------|
|---------------------|-------------------|
|---------------------|-------------------|


                A5                                      G#5
                        PM  PM    PM        PM  PM    PM
  E E E E E E E E   +E  E E E E E E E   +E  E E E E E E E   +W
|-----------------|-------------------|-------------------|-------------|
|-----------------|-------------------|-------------------|-------------|
|-0---------------|-------------------|-------------------|-------------|
|-2---3---2-3-2-7-|-------7---7-7---7-|-(7)---7---7-7---6-|-(6)---------|
|---------------7-|-(7)---7---7-7---7-|-(7)---7---7-7---6-|-(6)---------|
|---1---1-------5-|-(5)-5-5-5-5-5-5-5-|-(5)-5-5-5-5-5-5-4-|-(4)---------|
|
| W                  Q    q   E E Q      Q    Q   E E Q      W
|-----------------|-------------------|-------------------|-------------|
|-----------------|-------------------|-------------------|-------------|
|-----------------|-------7---7-5-----|-------4---4-5-----|-------------|
|-----------------|-------7---7-7-----|-------7---7-7-----|-------------|
|-----------------|-------------------|-------------------|-------------|
|-----------------|-------------------|-------------------|-------------|
|
| H       H          W                   H        Q   E E   +H     H
|-----------------|-------------------|-----------------4-|-(4)---------|
|-----------------|-------------------|-----------------5-|-(5)----3----|
|-4-------5-------|-------------------|-------------------|-------------|
|-----------------|-------------------|-------------------|-------------|
|-----------------|-------------------|-------------------|-------------|
|-----------------|-------------------|-------------------|-------------|


               F5                             A5
  +H     +Q.   E   +W            +H     +Q.   E   +W
|----------------|-------------|----------------|-------------|
|----------------|-------------|----------------|-------------|
|----------------|-------------|----------------|-------------|
|-(6)----(6)---3-|-(3)---------|-(3)----(3)---7-|-(7)---------|
|-(6)----(6)---3-|-(3)---------|-(3)----(3)---7-|-(7)---------|
|-(4)----(4)---1-|-(1)---------|-(1)----(1)---5-|-(5)---------|
|
| Gtr III
|  H      Q.   E   +H     H       H      Q.   E   +H     H
|--------------5-|-(5)---------|----------------|-------------|
|--------------6-|-(6)----5----|--3------5----6-|-(6)----5----|
|--5------4----7-|-(7)----5----|--4------5----7-|-(7)----5----|
|----------------|-------------|----------------|-------------|
|----------------|-------------|----------------|-------------|
|----------------|-------------|----------------|-------------|


               F5                             E5
                                                          PM    PM
  +H     +Q.   E   +W            +H     +Q.   E   +E  E E E E E E E
|----------------|-------------|----------------|-------------------|
|----------------|-------------|----------------|-------------------|
|----------------|-------------|----------------|-------------------|
|-(7)----(7)---3-|-(3)---------|-(3)----(3)-----|-----2-2---2-2---2-|
|-(7)----(7)---3-|-(3)---------|-(3)----(3)---2-|-(2)-2-2---2-2---2-|
|-(5)----(5)---1-|-(1)---------|-(1)----(1)---0-|-(0)-0-0-0-0-0-0-0-|
|
|  H      Q.   E   +H     H       H      Q.   E   +W
|----------------|-------------|----------------|-------------------|
|--3------5----6-|-(6)----5----|--3------5----3-|-(3)---------------|
|--4------5----7-|-(7)----5----|--4------5----4-|-(4)---------------|
|----------------|-------------|--------------2-|-(2)---------------|
|----------------|-------------|----------------|-------------------|
|----------------|-------------|----------------|-------------------|


                A5
    PM    PM
  E E E E E E E E   +W            +W            +W
|-----------------|-------------|-------------|-------------|
|-----------------|-------------|-------------|-------------|
|---------------2-|-(2)---------|-(2)---------|-(2)---------|
|-2---2-2---2-2-2-|-(2)---------|-(2)---------|-(2)---------|
|-2---2-2---2-2-0-|-(0)---------|-(0)---------|-(0)---------|
|-0-0-0-0-0-0-0---|-------------|-------------|-------------|
|
| Gtrs II, III
| H       Q   E E   +H     H       H     H       H     H
|-----------------|-------------|-------------|-------------|
|---------------5-|-(5)----6----|--5-----3----|--5-----6----|
|---------------5-|-(5)----7----|--5-----4----|--5-----7----|
|-----------------|-------------|-------------|-------------|
|-----------------|-------------|-------------|-------------|
|-----------------|-------------|-------------|-------------|


                 Interlude 1
                  C         Bm        Am      Bm         Dm        C
                     PM   PM  PM  PM    PM  PM       PM     PM   PM  PM  PM
  +H     H         E E  E E E E E E   E E E E  E E E E    E E  E E E E E E
|-------------||--------------------|------------------|-------------------|
|-------------||o-------------------|------------------|-------------------|
|-(2)---------||--------------------|------------------|-------------------|
|-(2)---------||--10---10---9---9---|-7---7---10-9-7---|-10---10---9---9---|
|-(0)---------||o----0----0---0---0-|---0---0--------7-|----0----0---0---0-|
|-------------||--------------------|------------------|-------------------|
|
|  H     H         H        H         H        H          H        H
|-------------||--------------------|------------------|-------------------|
|--5-----3----||o--5--------3-------|----------3-------|--6--------5-------|
|--5-----4----||---5--------4-------|-5--------4-------|--7--------5-------|
|-------------||--------------------|-7----------------|-------------------|
|-------------||o-------------------|------------------|-------------------|
|-------------||--------------------|------------------|-------------------|


  Bm      Am         C         Bm        Am      Bm         Dm        C
    PM  PM              PM   PM  PM  PM    PM  PM              PM   PM  PM  PM
  E E E E E  E E E    E E  E E E E E E   E E E E  E E E E    E E  E E E E E E
|------------------|-------------------|------------------|-------------------|
|------------------|-------------------|------------------|-------------------|
|------------------|-------------------|------------------|-------------------|
|-7---7--------7-9-|-10---10---9---9---|-7---7---10-9-7---|-10---10---9---9---|
|---0---0-8-10-----|----0----0---0---0-|---0---0--------7-|----0----0---0---0-|
|------------------|-------------------|------------------|-------------------|
|
| H       H           H        H         H        H          H        H
|------------------|-------------------|------------------|-------------------|
|-3----------------|--5--------3-------|----------3-------|--6--------5-------|
|-4-------5--------|--5--------4-------|-5--------4-------|--7--------5-------|
|---------7--------|-------------------|-7----------------|-------------------|
|------------------|-------------------|------------------|-------------------|
|------------------|-------------------|------------------|-------------------|


                          Interlude 2
  Am         Bm            D5
   E E  E  E E  E  E E      W
|-----------------------||---------------------|
|----------------------o||---------------------|
|-----------------------||--7------------------|
|----------7-9-10-12-9--||--7------------------|
|-10-8-10--------------o||--5------------------|
|-----------------------||---------------------|
|
| Gtr II
|  E E  E  E E  E  E E      E E  E E  E E  E E
|------------7--8-10-7--||---------------------|
|--8-6--8-10-----------o||-10---10---11---11---|
|------------4--5--7-4--||----7----7----7----7-|
|--5-3--5--7------------||--7----7----8----8---|
|----------------------o||----5----5----5----5-|
|-----------------------||---------------------|
|
| Gtr III
|  H         H              W
|-----------------------||--5------------------|
|----------------------o||--6------------------|
|--5---------7----------||--7------------------|
|--7---------9----------||---------------------|
|----------------------o||---------------------|
|-----------------------||---------------------|


                        C5
  +W                     W
|---------------------|-------------------------|
|---------------------|-------------------------|
|-(7)-----------------|--5----------------------|
|-(7)-----------------|--5----------------------|
|-(5)-----------------|--3----------------------|
|---------------------|-------------------------|
|
|  E  E E E  E E  E E    E  E  E  E  E  E  E  E
|---------------------|-------------------------|
|--8----8---10---10---|-------------------------|
|-----7---7----7----7-|-12----12----10----10----|
|--5----5----7----7---|----10----10----10----10-|
|-----5---5----5----5-|-10----10-----8-----8----|
|---------------------|-----8-----8-----8-----8-|
|
| +W                     W
|-(5)-----------------|--3----------------------|
|-(6)-----------------|--5----------------------|
|-(7)-----------------|--5----------------------|
|---------------------|-------------------------|
|---------------------|-------------------------|
|---------------------|-------------------------|


                          F5
                           PM--------------------
  +W                       E  E  E E  E  E  E E
|-----------------------|-----------------------|
|-----------------------|-----------------------|
|-(5)-------------------|-----------------------|
|-(5)-------------------|-----------------------|
|-(3)-------------------|--3--3--3-3--3--3--3-3-|
|-----------------------|--1--1--1-1--1--1--1-1-|
|
|  E   E E  E E E  E  E    E  E  E E  E  E  E E
|-----------------------|-----------------------|
|-----------------------|-10-------8-10-------8-|
|--9-----9----7-9-10----|-------10---------10---|
|-----10---10--------10-|--7-10----5--7-10----5-|
|--7-----7----5-7--8----|--------8----------8---|
|------8----8---------8-|-----8----------8------|
|
| +W                       W
|-(3)-------------------|--5--------------------|
|-(5)-------------------|--6--------------------|
|-(5)-------------------|--5--------------------|
|-----------------------|-----------------------|
|-----------------------|-----------------------|
|-----------------------|-----------------------|


  C5                 C#5  D5
 -------------------------------------------|
   E  E  E E  E  E E  E    E E  E E  E E  E E
|-----------------------|---------------------|
|-----------------------|---------------------|
|-----------------------|---------------------|
|--5--5--5-5--5--5-5--6-|--7-7--7-7--7-7--7-7-|
|--3--3--3-3--3--3-3--4-|--5-5--5-5--5-5--5-5-|
|-----------------------|---------------------|
|
|  E  E  E E  E  E E  E    E E  E E  E E  E E
|-----------------------|---------------------|
|-10----10-8------------|-10---10---11---11---|
|------------10----9----|----7----7----7----7-|
|--7-10--7-5----10---11-|--7----7----8----8---|
|-------------8----7----|----5----5----5----5-|
|-----8----------8----9-|---------------------|
|
|  W                       W
|--3--------------------|--5------------------|
|--5--------------------|--6------------------|
|-----------------------|--7------------------|
|-----------------------|---------------------|
|-----------------------|---------------------|
|-----------------------|---------------------|


                       Interlude 3
  D5                    C         Dm        C       Bm
   PM-------------|
   E  E E E E E E E      E E  E E E E E E   E E E E  E E E E
|-------------------||--------------------|------------------|
|-------------------||o-------------------|------------------|
|-------------------||--------------------|------------------|
|--7--7-7-7-7-7-7-7-||--10---10---9---9---|-7---7---10-9-7---|
|--5--5-5-5-5-5-5-5-||o----0----0---0---0-|---0---0--------7-|
|-------------------||--------------------|------------------|
|
|  E  E E E E E E E      H        H         H        H
|-----------8-6-5---||--------------------|------------------|
|--8----8---------8-||o--5--------6-------|-5--------3-------|
|-----7---7-5-------||---5--------7-------|-5--------4-------|
|--5----5-----8-7-5-||--------------------|------------------|
|-----5---5---------||o-------------------|------------------|
|-------------------||--------------------|------------------|
|
| +W                     H        H         H        H
|-(5)---------------||--------------------|------------------|
|-(6)---------------||o--5--------6-------|-5--------3-------|
|-(7)---------------||---5--------7-------|-5--------4-------|
|-------------------||--------------------|------------------|
|-------------------||o-------------------|------------------|
|-------------------||--------------------|------------------|


                     1.                   2.
  Dm        C         Bm      C/A          Am      Bm
                                                   PM----------|
                                                   |-3--| |--3--|
   E E  E E E E E E   E E E E E  E E E     E E E E E  E E E  E  E
|-------------------|-------------------||------------------------||
|-------------------|------------------o||------------------------||
|-------------------|-------------------||------------------------||
|-10---10---9---9---|-7---7--------7-9--||-7---7--------7-9-10-12-||
|----0----0---0---0-|---0---0-8-10-----o||---0---0-8-10-----------||
|-------------------|-------------------||------------------------||
|
| Gtrs II, III
|  H        H         H       H            H       H
|-------------------|-------------------||------------------------||
|--6--------5-------|-3-------5--------o||---------3--------------||
|--7--------5-------|-4-------5---------||-5-------4--------------||
|-------------------|---------7---------||-7----------------------||
|-------------------|------------------o||------------------------||
|-------------------|-------------------||------------------------||


 Breakdown
  E5
  PM---------------------------------------------|
  E E E E E E E E   E E E E H      E E E E E E E E
|-----------------|--------------|-----------------|
|-----------------|--------------|-----------------|
|-----------------|--------------|-----------------|
|-2-2---2-2---2-2-|---2-2--------|-2-2---2-2---2-2-|
|-2-2---2-2---2-2-|---2-2--------|-2-2---2-2---2-2-|
|-0-0---0-0---0-0-|---0-0--------|-0-0---0-0---0-0-|
|
| Gtr II
| E E E E E E E E   E E E E H      E E E E E E E E
|-----------------|--------------|-----------------|
|-----------------|--------------|-----------------|
|-9-9---9-9---9-9-|---9-9--------|-7-7---7-7---7-7-|
|-9-9---9-9---9-9-|---9-9--------|-7-7---7-7---7-7-|
|-7-7---7-7---7-7-|---7-7--------|-7-7---7-7---7-7-|
|-----------------|--------------|-----------------|


  PM------------------------------------------------------------|
  E E E E H      E E E E E E E E   E E E E H      E E E E E E E E
|--------------|-----------------|--------------|-----------------|
|--------------|-----------------|--------------|-----------------|
|--------------|-----------------|--------------|-----------------|
|---2-2--------|-2-2---2-2---2-2-|---2-2--------|-2-2---2-2---2-2-|
|---2-2--------|-2-2---2-2---2-2-|---2-2--------|-2-2---2-2---2-2-|
|---0-0--------|-0-0---0-0---0-0-|---0-0--------|-0-0---0-0---0-0-|
|
| E E E E H      E E E E E E E E   E E E E H      E E E E E E E E
|--------------|-----------------|--------------|-----------------|
|--------------|-----------------|--------------|-----------------|
|---7-7--------|-5-5---5-5---5-5-|---5-5--------|-4-4---4-4---4-4-|
|---7-7--------|-7-7---7-7---7-7-|---7-7--------|-5-5---5-5---5-5-|
|---7-7--------|-7-7---7-7---7-7-|---7-7--------|-7-7---7-7---7-7-|
|--------------|-----------------|--------------|-----------------|


             Out-Chorus
D.S. al Coda
           &
              A5                                  F5
  Gtr I
              PM|   PM    PM        PM  PM      PM
  W           E E E E E E E E   +E  E E E  E  E E E   +E  E E E E E E E
|----------||-----------------|---------------------|-------------------|
|----------||-----------------|---------------------|-------------------|
|----------||-----------------|---------------------|-------------------|
|----------||-----7---7-7---7-|-(7)---7----7--7---3-|-(3)---3---2---3---|
|----------||-----7---7-7---7-|-(7)---7----7--7---3-|-(3)-3-------------|
|----------||-5-5-5-5-5-5-5-5-|-(5)-5-5-5--5--5-5-1-|-(1)-1---1---1---1-|
|
| Gtr II
| W           Q   q   E E Q      Q    q    E  E Q      W
|----------||-----------------|---------------------|-------------------|
|----------||-----------------|---------------------|-------------------|
|----------||-----7---7-5-----|-------4----4--5-----|-------------------|
|----------||-----7---7-7-----|-------7----7--7-----|-------------------|
|----------||-----------------|---------------------|-------------------|
|----------||-----------------|---------------------|-------------------|
|
| Gtr III
| W           W                 +H        +Q.     E   +H        H
|----------||-5---------------|-(5)-------(5)-------|-------------------|
|----------||-----------------|-------------------3-|-(3)---------------|
|----------||-----------------|---------------------|-----------5-------|
|----------||-----------------|---------------------|-------------------|
|----------||-----------------|---------------------|-------------------|
|----------||-----------------|---------------------|-------------------|


                A5                                      G#5
                        PM  PM    PM        PM  PM    PM
  E E E E E E E E   +E  E E E E E E E   +E  E E E E E E E   +W
|-----------------|-------------------|-------------------|-------------|
|-----------------|-------------------|-------------------|-------------|
|-0---------------|-------------------|-------------------|-------------|
|-2---3---2-3-2-7-|-------7---7-7---7-|-(7)---7---7-7---6-|-(6)---------|
|---------------7-|-(7)---7---7-7---7-|-(7)---7---7-7---6-|-(6)---------|
|---1---1-------5-|-(5)-5-5-5-5-5-5-5-|-(5)-5-5-5-5-5-5-4-|-(4)---------|
|
| W                  Q    q   E E Q      Q    q   E E Q      W
|-----------------|-------------------|-------------------|-------------|
|-----------------|-------------------|-------------------|-------------|
|-----------------|-------7---7-5-----|-------4---4-5-----|-------------|
|-----------------|-------7---7-7-----|-------7---7-7-----|-------------|
|-----------------|-------------------|-------------------|-------------|
|-----------------|-------------------|-------------------|-------------|
|
| H       H          W                   H        Q   E E   +H     H
|-----------------|-------------------|-----------------4-|-(4)---------|
|-----------------|-------------------|-----------------5-|-(5)----3----|
|-4-------5-------|-------------------|-------------------|-------------|
|-----------------|-------------------|-------------------|-------------|
|-----------------|-------------------|-------------------|-------------|
|-----------------|-------------------|-------------------|-------------|


             F5                             A5
  H    +Q.   E   +W            +H     +Q.   E   +W
|--------------|-------------|----------------|-------------|
|--------------|-------------|----------------|-------------|
|--------------|-------------|----------------|-------------|
|-6----(6)---3-|-(3)---------|-(3)----(3)---7-|-(7)---------|
|-6----(6)---3-|-(3)---------|-(3)----(3)---7-|-(7)---------|
|-4----(4)---1-|-(1)---------|-(1)----(1)---5-|-(5)---------|
|
| Gtr III
| H     Q.   E   +H     H       H      Q.   E   +H     H
|------------5-|-(5)---------|----------------|-------------|
|------------6-|-(6)----5----|--3------5----6-|-(6)----5----|
|-5-----4----7-|-(7)----5----|--4------5----7-|-(7)----5----|
|--------------|-------------|----------------|-------------|
|--------------|-------------|----------------|-------------|
|--------------|-------------|----------------|-------------|


               F5                             E5
                                                          PM    PM
  +H     +Q.   E   +W            +H     +Q.   E   +E  E E E E E E E
|----------------|-------------|----------------|-------------------|
|----------------|-------------|----------------|-------------------|
|----------------|-------------|----------------|-------------------|
|-(7)----(7)---3-|-(3)---------|-(3)----(3)-----|-----2-2---2-2---2-|
|-(7)----(7)---3-|-(3)---------|-(3)----(3)---2-|-(2)-2-2---2-2---2-|
|-(5)----(5)---1-|-(1)---------|-(1)----(1)---0-|-(0)-0-0-0-0-0-0-0-|
|
|  H      Q.   E   +H     H       H      Q.   E   +W
|----------------|-------------|----------------|-------------------|
|--3------5----6-|-(6)----5----|--3------5----3-|-(3)---------------|
|--4------5----7-|-(7)----5----|--4------5----4-|-(4)---------------|
|----------------|-------------|--------------2-|-(2)---------------|
|----------------|-------------|----------------|-------------------|
|----------------|-------------|----------------|-------------------|


                    A5
      PM     PM
   E  E E E  E  E E E   +W           +W
|---------------------|------------|--------*|
|---------------------|------------|--------*|
|-------------------2-|-(2)--------|-(2)----*|
|--2----2-2-----2-2-2-|-(2)--------|-(2)----*|
|--2----2-2-----2-2-0-|-(0)--------|-(0)----*|
|--0--0-0-0--0--0-0---|------------|--------*|
|
| +H        +Q.     E    W            W
|---------------------|------------|--------*|
|-(3)-------(3)-------|------------|--------*|
|-(4)-------(4)-------|------------|--------*|
|-(2)-------(2)-------|------------|--------*|
|---------------------|------------|--------*|
|---------------------|------------|--------*|



Duration Legend
---------------
W - whole; H - half; Q - quarter; E - 8th; S - 16th; T - 32nd; X - 64th; a - acciaccatura
+ - note tied to previous; . - note dotted; .. - note double dotted
Uncapitalized letters represent notes that are staccato (1/2 duration)
Irregular groupings are notated above the duration line
Duration letters will always appear directly above the note/fret number it represents the
duration for.  Duration letters with no fret number below them represent rests.  Multi-
bar rests are notated in the form Wxn, where n is the number of bars to rest for.  Low
melody durations appear below the staff

Tablature Legend
----------------
 h   - hammer-on
 p   - pull-off
 b   - bend
 pb  - pre-bend
 r   - bend release (if no number after the r, then release immediately)
 /\  - slide into or out of (from/to "nowhere")
 s   - legato slide
 S   - shift slide
 - natural harmonic
[n]  - artificial harmonic
n(n) - tapped harmonic
 ~   - vibrato
 tr  - trill
 T   - tap
 TP  - trem. picking
 PM  - palm muting
\n/  - tremolo bar dip; n = amount to dip
 \n  - tremolo bar down
 n/  - tremolo bar up
/n\  - tremolo bar inverted dip
 =   - hold bend; also acts as connecting device for hammers/pulls
 <> - volume swell (louder/softer)
 x   - on rhythm slash represents muted slash
 o   - on rhythm slash represents single note slash

Misc Legend
-----------
 |  - bar
||  - double bar
||o - repeat start
o|| - repeat end
*|  - double bar (ending)
 :  - bar (freetime)
 $  - Segno
 &  - Coda
Tempo markers -  = BPM(8/16=s8/s16), where s8 = swing 8ths, s16 = swing 16ths

comments
We did not receive enough feedback on this tab! Please rate:
1 2 3 4 5
I want to post or [tab]
guest
You may want to rate the tab now too:
select rating
Please do not post tabs as comments. Select "correction" instead!