Oops, an error
Loading. Please wait.

Beauty And The Beast Tab

ver2
ver2

Whole song

Interactive

More versions @911Tabs.com
2,322 views 1 this week
3 commentsread comments
1 2 3 4 5
worth learning
x 3
Autoscroll
+/-
esc
set tempo
stop
Contributor
Hey! There's an official Ultimate Guitar app which is ideal
for learning songs when you're away from computer. Get the app
WARNING: You are trying to view
                                    content from Ultimate-Guitar.com
                                    in an unauthorized application,
                                    which is prohibited.

                                    Please use an official Ultimate
                                    Guitar Tabs application for iPhone,
                                    iPad or Android to access legitimate
                                    chords, guitar, bass, and drum tabs
                                    from Ultimate-Guitar.com database.

                                    Type "ultimate guitar tabs" in Apple
                                    App Store's or Android Market's
                                    search to find the application.
BEAUTY AND THE BEAST  -  NIGTHWISH
From The Album Angels Fall First
Tunned down 1/2 step



Intro (0:00 - 1:30): 
|-------------------------------------|-------------------------------------|
|-------------------------------------|-------------------------------------|
|-------------------------------------|-------------------------------------|
|-------------------------------------|-------------------------------------|
|--6--8-2-------6--8-2-------6--8-2---|--6--8-------------------------------|
|--4--6-0-------4--6-0-------4--6-0---|--4--6-33333333333333333333333333333-|

|-------------------------------------|-------------------------------------|
|-------------------------------------|-------------------------------------|
|-------------------------------------|-------------------------------------|
|-------------------------------------|-------------------------------------|
|--8--5-------------------------------|--8--5--2-0----------------2-0-------|
|--6--3-33333333333333333333333333333-|--6--3------3---0-0-2-3--------------|

|-------------------------------------|-------------------------------------|
|-------------------------------------|-------------------------------------|  
|-------------------------------------|-------------------------------------|  
|-------------------------------------|-------------------------------------|  
|--3-2-1-0-------2----------0--6--8---|--2-0---------------2-0--------------|
|----------3-2-0----3-0-2-3----4--6---|------3--0-0-2-3---------------------|

|-------------------------------------|
|-------------------------------------|
|-------------------------------------|
|-------------------------------------|
|--3-2-1-0-------2----------0--6--8---|
|----------3-2-0----3-0-2-3----4--6---|

|-------------------------------------|-------------------------------------|
|-------------------------------------|-------------------------------------|
|-------------------------------------|-------------------------------------|
|-------------------------------------|-------------------------------------|
|--6--8---6--8---6--8---6--8---6--8---|--6--8---6--8---6--8---6--8----------|
|--4--6---4--6---4--6---4--6---4--6---|--4--6---4--6---4--6---4--6----------|

|-------------------------------------|
|-------------------------------------|
|-------------------------------------|
|-------------------------------------|
|--6--8---6--8---6--8---2-------------|
|--4--6---4--6---4--6---0-------------|
                                      
|-------------------------------------|-------------------------------------|
|-------------------------------------|-------------------------------------|
|-------------------------------------|-------------------------------------|
|-------------------------------------|-------------------------------------|
|--7-x---3-x---5-5-x---6---3----------|--7----3----5----8-8--7--------------|
|--5-x---1-x---3-3-x---4---1----------|--5----1----3----6-6--5--------------|



Verse 1 (Beast) (1:30 - 1:46):
|---------------------------------------------------------------------------|
|---------------------------------------------------------------------------|
|---------------------------------------------------------------------------|
|---------------------------------------------------------------------------|
|--7----7----7----7----3----3----3----3----5----5----5----5----8----5h7-8p7-|
|--5-55-5-55-5-55-5-55-1-11-1-11-1-11-1-11-3-33-3-33-3-33-3-33-6------------|

|---------------------------------------------------------------------------|
|---------------------------------------------------------------------------|
|---------------------------------------------------------------------------|
|---------------------------------------------------------------------------|
|--7----7----7----7----3----3----3----3----5----5----5----5----8-8---5------|
|--5-55-5-55-5-55-5-55-1-11-1-11-1-11-1-11-3-33-3-33-3-33-3-33-6-6---3------|



Verse 2 (Beauty) (1:46 - 2:03):

|---------------------------------------------------------------------------|
|---------------------------------------------------------------------------|
|---------------------------------------------------------------------------|
|--------7------------------------------7-----------------------------------|
|--7-----5-----5-----8----5-5-5-5-7-----5-----5-----8----5-5-5-5-x----------|
|--5-----------3-----6----3-3-3-3-5-----------3-----6----3-3-3-3-x----------|



Verse 3 (Beast) (2:03 - 2:20):

 Play Verse 1



Verse 4 (Beauty) (2:20 - 2:37):

 Play Verse 2



(Beast voice)
|-------------------------------------|-------------------------------------|
|-------------------------------------|-------------------------------------|
|-------------------------------------|-------------------------------------|
|-------------------------------------|---------------(REST)----------------|
|--6--8--6--8--6--8--6--8---2---------|-------------------------------------|
|--4--6--4--6--4--6--4--6---0---------|-------------------------------------|



Guitar Solo (3:10 - 3:30):
|-------------------------------9-----|----------10--10p9p7-----------------|
|---------------------10---12-----12--|--9-10-12------------10---10h12-10-9-|
|-7h9b---7/6--6-4---9----9----9-------|------------------------9~~----------|
|-------------------------------------|-------------------------------------|
|-------------------------------------|-------------------------------------|
|-------------------------------------|-------------------------------------|

|-------------------------------------|---------10--9-7---------------------|
|---10---12---12/14-12----------------|-9-10-12---------10-10~~-9h10p9b-----|
|-9----9----9-------------------------|-------------------------------------|
|-------------------------------------|-------------------------------------|
|-------------------------------------|-------------------------------------|
|-------------------------------------|-------------------------------------|



Verse 5 (Beauty) (3:30 - 4:18)
|--------------------------------------------------------------------------|
|--------------------------------------------------------------------------|
|--------------------------------------------------------------------------|
|--2------------2--------------2------------2------------------------------|
|--0--2--7--5---0--2--7--5-7---0--2--7--5---0--2--7--5-7-5-----------------|
|-----0--5--3------0--5--3-5------0--5--3------0--5--3-5-3-----------------|

|-------------------------------------|
|-------------------------------------|
|-------------------------------------|
|-------------------------------------|
|--5-4--0--let ring-------------------|
|--3/2--2-----------------------------|

"Forever Shall The Wolf In Me Desire The Sheep In You"

Instrumental Part (4:18 - 6:24)
|--------------------------------------------------------------------------|
|--------------------------------------------------------------------------|
|--------------------------------------------------------------------------|
|--------------------------------------------------------------------------|
|--2------------------------8-5-2------------------------8-5-2-------------|
|--0-000-000-000-000-000-00-6-3-0-000-000-000-000-000-00-6-3-0-000-000-000-|

|--------------------------------------------------------------------------|
|--------------------------------------------------------------------------|
|--------------------------------------------------------------------------|
|--------------------------------------------------------------------------|
|-------------8-5-(2)-----------------------8-5-2--------------------------|
|--000-000-00-6-3----000-000-000-000-000-00-6-3-0--------------------------|

|--------------------------------------------------------------------------|  
|--------------------------------------------------------------------------|   
|--------------------------------------------------------------------------|    
|----2-----32-----3-----(3)(3)2--------------------------------------------|   
|-00--0--00----00----------------2-----------------------------------------|   
|--------------------------------0-----------------------------------------|

|--------------------------------------------------------------------------|  
|--------------------------------------------------------------------------|   
|--------------------------------------------------------------------------|   
|----2-----32-----3-----(3)(3)2--------------------------------------------|   
|-00--0--00----00---------------(7)b----------7r---------------------------|  
|--------------------------------------------------------------------------|  

|--------------------------------------------------------------------------|  \
|--------------------------------------------------------------------------|   |
|--------------------------------------------------------------------------|   |
|--------------------------------------------------------------------------|   |
|--2------------------------8-5-2------------------------8-5-2-------------|   |
|--0-000-000-000-000-000-00-6-3-0-000-000-000-000-000-00-6-3-0-000-000-000-|   |
                                                                                -  Play Till End
|--------------------------------------------------------------------------|   |
|--------------------------------------------------------------------------|   |
|--------------------------------------------------------------------------|   |
|--------------------------------------------------------------------------|   |
|-------------8-5-(2)-----------------------8-5-2--------------------------|   |
|--000-000-00-6-3----000-000-000-000-000-00-6-3-0--------------------------|  /
comments
We did not receive enough feedback on this tab! Please rate:
print report bad tab
1 2 3 4 5
3 comments total.
0 reply
Nightwish Fan wrote on November 23 2006, 11:40 am

It´s not accurate, it´s one of the worst tabs I have seen.

0 reply
Mistress_Ibanez wrote on February 6 2007, 02:52 pm

^^ Got to agree, it's in STANDARD tuning not half step down.

0 reply
MateoPaysse wrote on May 31 2013, 09:27 am


E|--------------------------------------------------------||
B|--------------------------------------------------------||
G|-5-7-----5-7----5-7----5-7--------8-5-------8-7---------||
D|-5-7-2---5-7-2--5-7-2--5-7-5------8-5-5-----8-7-5-------||
A|-3-5-2---3-5-2--3-5-2--3-5-5------6-3-5-----6-3-5-------||
E|-----0-------0------0------33.....----33....----3-------||

E|--------------------------------------------------------||
B|--------------------------------------------------------||
G|-------------------------------------------------5-7----||
D|-------------------------------------------------5-7-5--||
A|-------------------------------------------------3-5-5--||
E|-7-5-3-0-2-3-5---7-5---8-7-5-3-2-0-7-5-3-0-2-3-5-----3--||

E|--------------------------------------------------------||
B|--------------------------------------------------------||
G|--------------------------------------------------------||
D|--------------------------------------------------------||
A|--------------------------------------------------------||
E|-7-5-3-0-2-3-5---7-5---8-7-5-3-2-0-7-5-3-0-2-3-5--------||

E|---------------------------------------------------------------------||
B|---------------------------------------------------------------------||
G|-------------Start getting faster and faster, then slow down---------||
D|-5-7-8-10-8-10-8-10-8-10-8-10-8-10-8-10-8-10-8-10-8-10-8-10-8-10-----||
A|-3-5-6--8-6--8-6--8-6--8-6--8-6--8-6--8-6--8-6--8-6--8-6--8-6--8-8---||
E|-----------------------------------------------------------------6---||

1:15
E|--------------------------------------------------------||
B|--------------------------------------------------------||
G|---------7/5------------7-5-----------------------------||
D|-7-3-5-5-7/5------7-3-5-7-5-----------------------------||
A|-7-3-5-5-5/3------7-3-5-5-3-----------------------------||
E|-5-1-3-3----------5-1-3---------------------------------||

1:30
E|--------------------------------------------------------||
B|--------------------------------------------------------||
G|-------------------------------------7------------------||
D|-7-7-7---------3-3-3-------5-5-5-5-5-7------------------||
A|-7-7-7-5-3-2-0-3-3-3-5-3-0-5-5-5-5-5-5-5-7-7-7-5-7-7-7--||
E|-5-5-5---------1-1-1-------3-3-3-3-3--------------------||

E|--------------------------------------------------------||
B|--------------------------------------------------------||
G|-------------------------------------7------5-----------||
D|-7-7-7---------3-3-3-------5-5-5-5-5-7-Ring-5Ring-------||
A|-7-7-7-5-3-2-0-3-3-3-5-3-0-5-5-5-5-5-5------3-----------||
E|-5-5-5---------1-1-1-------3-3-3-3-3--------------------||

1:48
E|--------------------------------------------------------||
B|--------------------------------------------------------||
G|----7-----5---------------------------------------------||
D|-7--7--3--5--5-5-5-5------------2 TIMES-----------------||
A|-7--5--3--3--5-5-5-5------------------------------------||
E|-5-----1-----3-3-3-3------------------------------------||

2:05
E|--------------------------------------------------------||
B|--------------------------------------------------------||
G|-------------------------------------7------------------||
D|-7-7-7---------3-3-3-------5-5-5-5-5-7------------------||
A|-7-7-7-5-3-2-0-3-3-3-5-3-0-5-5-5-5-5-5-5-7-7-7-5-7-7-7--||
E|-5-5-5---------1-1-1-------3-3-3-3-3--------------------||

E|--------------------------------------------------------||
B|--------------------------------------------------------||
G|-------------------------------------7------5-----------||
D|-7-7-7---------3-3-3-------5-5-5-5-5-7-Ring-5Ring-------||
A|-7-7-7-5-3-2-0-3-3-3-5-3-0-5-5-5-5-5-5------3-----------||
E|-5-5-5---------1-1-1-------3-3-3-3-3--------------------||

2:21
E|--------------------------------------------------------||
B|--------------------------------------------------------||
G|----7-----5---------------------------------------------||
D|-7--7--3--5--5-5-5-5----------------------2 TIMES-------||
A|-7--5--3--3--5-5-5-5------------------------------------||
E|-5-----1-----3-3-3-3------------------------------------||

About midway through the guys little growl thing, the guitar comes in.

2:46
E|--------------------------------------------------------||
B|--------------------------------------------------------||
G|--------------------------------------------------------||
D|-8-10-8-10-8-10-8-10------------------------------------||
A|-6--8-6--8-6--8-6-8--8----------------------------------||
E|---------------------6----------------------------------||

3:11
E|-----------------------------11------------------14-13-------||
B|--------------------11--13------14--14\13-14/16--------16-14-||
G|--13^--13~--12\10-10--10---10--------------------------------||
D|-------------------------------------------------------------||
A|-------------------------------------------------------------||
E|-------------------------------------------------------------||

E|--------------

I want to post or [tab]
guest
You may want to rate the tab now too:
select rating
Please do not post tabs as comments. Select "correction" instead!