Oops, an error
Loading. Please wait.

Beauty And The Beast Tab

ver3
ver3

Whole song

Interactive

More versions @911Tabs.com
1,406 views 1 this week
no commentswrite comment
1 2 3 4 5
excellent!
x 1
add to favorites launch autoscroll
font size
0
reset
Autoscroll
+/-
esc
set tempo
stop
Contributor
WARNING: You are trying to view
                                    content from Ultimate-Guitar.com
                                    in an unauthorized application,
                                    which is prohibited.

                                    Please use an official Ultimate
                                    Guitar Tabs application for iPhone,
                                    iPad or Android to access legitimate
                                    chords, guitar, bass, and drum tabs
                                    from Ultimate-Guitar.com database.

                                    Type "ultimate guitar tabs" in Apple
                                    App Store's or Android Market's
                                    search to find the application.
#----------------------------------PLEASE NOTE---------------------------------#
#This file is the author's own work and represents their interpretation of the #
#song. You may only use this file for private study, scholarship, or research. #
#------------------------------------------------------------------------------#

BEAUTY AND THE BEAST
As recorded by Nightwish
(From the 1997 Album ANGELS FALL FIRST)

Transcribed by Ivan - (peekaboo104@hotmail.com)
	

Words and Music by Nightwish

F5
1 3 3 x x x
	
E5
0 2 2 x x x
	
C5
x 3 5 5 x x
	
D5
x 5 7 7 x x

Gtr I (E A D G B E) - 'Dist.'
Gtr II (E A D G B E) - 'Dist.'
Gtr III (E A D G B E) - 'Keyboard'
Gtr IV (E A D G B E) - 'Keyboard'

 Intro
  Moderately Q=140
  N.C.
 4/4
  W                           W
  Gtr III
  |-3-|     |-3-|                 |-3-|     |-3-|
  S S S e E S S S e S S e e   e e S S S e E S S S e S S
|-3p2p0-----3p2p0---3-2-3-5-|-3-2-3p2p0-----3p2p0---3-2-|
|-------0---------0---------|-----------0---------0-----|
|---------------------------|---------------------------|
|---------------------------|---------------------------|
|---------------------------|---------------------------|
|---------------------------|---------------------------|


                                   C5  D5
                            3/4
                          Gtr I
  W                          Q     Q   Q
                                   |   |
                                   /   /

          |-3-|     |-3-|
  e e e e S S S e E S S S    e S S e e e e
|-3-5-3-2-3p2p0-----3p2p0-||---3p2-3-2-3-5----||
|---------------0---------||-0----------------||
|-------------------------||------------------||
|-------------------------||------------------||
|-------------------------||------------------||
|-------------------------||------------------||


    E5
   4/4
    Gtr II
    W                           +W
||----------------------------|-----------------------------|
||o---------------------------|-----------------------------|
||----------------------------|-----------------------------|
||--2-------------------------|-(2)-------------------------|
||o-2-------------------------|-(2)-------------------------|
||--0-------------------------|-(0)-------------------------|
|
|   Gtr III
|   |-3-|     |-3-|                   |-3-|     |-3-|
|   S S S e E S S S e S S e e    e  e S S S e E S S S e S S
||--3p2p0-----3p2p0---3-2-3-5-|--3--2-3p2p0-----3p2p0---3-2-|
||o-------0---------0---------|-------------0---------0-----|
||----------------------------|-----------------------------|
||----------------------------|-----------------------------|
||o---------------------------|-----------------------------|
||----------------------------|-----------------------------|


                              3/4
  +W                           +Q      Q   Q      3x
|---------------------------||--------------------||
|---------------------------||-------------------o||
|---------------------------||---------5---7------||
|-(2)-----------------------||-(2)-----5---7------||
|-(2)-----------------------||-(2)-----3---5-----o||
|-(0)-----------------------||-(0)----------------||
|
|           |-3-|     |-3-|
|  e  e e e S S S e E S S S     e  S S e e e e    3x
|--3--5-3-2-3p2p0-----3p2p0-||-----3p2-3-2-3-5----||
|-----------------0---------||--0----------------o||
|---------------------------||--------------------||
|---------------------------||--------------------||
|---------------------------||-------------------o||
|---------------------------||--------------------||


    N.C.(G)
   4/4
    PM---------------------------------------------------------------------------------
    S   S   S S S S S   S   S S S S S S S S   S S S S S   S   S S S S S   S   S S S S
||------------------------------------------|-----------------------------------------|
||o-----------------------------------------|-----------------------------------------|
||------------------------------------------|-----------------------------------------|
||------------------------------------------|-----------------------------------------|
||o-----------------------------------------|-----------------------------------------|
||--3---3---3-3-3-3-3---3---3-3-3-3-3-3-3-3-|-3-3-3-3-3---3---3-3-3-3-3---3---3-3-3-3-|
|
|   |--3--|         |--3--|                           |--3--|         |--3--|
|   S S   S e   E   S S   S e   S S e   e     e   e   S S   S e   E   S S   S e   S S
||--6p5p==3---------6p5p==3-----6-5-6---8---|-6---5---6p5p==3---------6p5p==3-----6-5-|
||o---------3---------------3---------------|-----------------3---------------3-------|
||------------------------------------------|-----------------------------------------|
||------------------------------------------|-----------------------------------------|
||o-----------------------------------------|-----------------------------------------|
||------------------------------------------|-----------------------------------------|


                                            3/4
 --------------------------------------------------|
  S S S S S S S S S   S   S S S S S   S      S S S S Q   Q
|-----------------------------------------||--------------------||
|-----------------------------------------||-------------------o||
|-----------------------------------------||---------8---5------||
|-----------------------------------------||---------8---5------||
|-----------------------------------------||---------6---3-----o||
|-3-3-3-3-3-3-3-3-3---3---3-3-3-3-3---3---||-3-3-3-3------------||
|
|                 |--3--|         |--3--|
| e   e   e   e   S S   S e   E   S S   S    e   S S e e e e
|-6---8---6---5---6p5p==3---------6p5p==3-||-----6-5-6-5-6-8----||
|-------------------------3---------------||-3-----------------o||
|-----------------------------------------||--------------------||
|-----------------------------------------||--------------------||
|-----------------------------------------||-------------------o||
|-----------------------------------------||--------------------||


    N.C.(E)
   4/4
    PM-----------------------------------------------------------
                                            |--3--|   |--3--|
    E     E E E     E E   E E   E E E     E E E   E   E E   E
||----------------------------|---------------------------------|
||o---------------------------|---------------------------------|
||----------------------------|---------------------------------|
||----------------------------|---------------------------------|
||o-------2-0-------------0-2-|---2-0-------3-2---0-------------|
||--0---------3-----2-3-------|-0---------3-----------3-2---0---|
|
|   |-3-|     |-3-|                 |-3-|       |-3-|
|   S S S e E S S S e S S e e   e e S S S e E   S S S e   S   S
||--3p2p0-----3p2p0---3-2-3-5-|-3-2-3p2p0-------3p2p0-----3---2-|
||o-------0---------0---------|-----------0-----------0---------|
||----------------------------|---------------------------------|
||----------------------------|---------------------------------|
||o---------------------------|---------------------------------|
||----------------------------|---------------------------------|


                                   C5  D5
                            3/4
 -------------------|
  E E E E E     E E E        Q     Q   Q
|-------------------------||-------------------||
|-------------------------||------------------o||
|-------------------------||-------5---7-------||
|-------------------------||-------5---7-------||
|---2-0-----------0-2-----||-------3---5------o||
|-0-----3-2-----3---------||-------------------||
|
|         |-3-|     |-3-|
| e e e e S S S e E S S S    e S S e e e e
|-3-5-3-2-3p2p0-----3p2p0-||---3p2-3-2-3-5-----||
|---------------0---------||-0----------------o||
|-------------------------||-------------------||
|-------------------------||-------------------||
|-------------------------||------------------o||
|-------------------------||-------------------||


  Q=70              Q=90              Q=100             Q=110
  Eb5 F5  Eb5 F5    Eb5 F5  Eb5 F5    Eb5 F5  Eb5 F5    Eb5 F5  Eb5 F5
 4/4
   Q   Q   Q   Q     Q   Q   Q   Q     Q   Q   Q   Q     Q   Q   Q   Q
|-----------------|-----------------|-----------------|----------------|
|-----------------|-----------------|-----------------|----------------|
|--8--10---8--10--|--8--10---8--10--|--8--10---8--10--|--8--10---8--10-|
|--8--10---8--10--|--8--10---8--10--|--8--10---8--10--|--8--10---8--10-|
|--6---8---6---8--|--6---8---6---8--|--6---8---6---8--|--6---8---6---8-|
|-----------------|-----------------|-----------------|----------------|
|
|  Q   Q   Q   Q     Q   Q   Q   Q     Q   Q   Q   Q     Q   Q   Q   Q
|-----------------|-----------------|-----------------|----------------|
|-11--10--11--10--|-11--10--11--10--|-11--10--11--10--|-11--10--11--10-|
|-11--10--11--10--|-11--10--11--10--|-11--10--11--10--|-11--10--11--10-|
|-13--10--13--10--|-13--10--13--10--|-13--10--13--10--|-13--10--13--10-|
|-----------------|-----------------|-----------------|----------------|
|-----------------|-----------------|-----------------|----------------|


  Q=120       H.=H                                       H=H
  Eb5 F5  Eb5 F5    Eb5 F5  Eb5 F5    Eb5 F5  Eb5 F5     Bb5
   Q   Q   Q   Q     Q   Q   Q   Q     Q   Q   Q   Q      W
|-----------------|-----------------|-----------------||-------||
|-----------------|-----------------|-----------------||-------||
|--8--10---8--10--|--8--10---8--10--|--8--10---8--10--||--3----||
|--8--10---8--10--|--8--10---8--10--|--8--10---8--10--||--3----||
|--6---8---6---8--|--6---8---6---8--|--6---8---6---8--||--1----||
|-----------------|-----------------|-----------------||-------||
|
|  Q   Q   Q   Q     Q   Q   Q   Q     Q   Q   Q   Q      W
|-----------------|-----------------|-----------------||-------||
|-11--10--11--10--|-11--10--11--10--|-11--10--11--10--||-------||
|-11--10--11--10--|-11--10--11--10--|-11--10--11--10--||-10----||
|-13--10--13--10--|-13--10--13--10--|-13--10--13--10--||-11----||
|-----------------|-----------------|-----------------||-13----||
|-----------------|-----------------|-----------------||-------||


  Moderately Q=115
  A5
   E    E    Q         H
|-------------------------------------------|
|-------------------------------------------|
|-------------------------------------------|
|-------------------------------------------|
|--7----------------------------------------|
|--5----------------------------------------|
|
| Gtrs III, IV
|  S S  S S  S S  S S  S S  S S  S  S  S  S
|-------------------------------10----------|
|-10---12---13---10---12---13------13-12-13-|
|----9----9----9----9----9----9-------------|
|-------------------------------------------|
|-------------------------------------------|
|-------------------------------------------|


  F5                                                G5
   E     E     Q           H                        E    E   Q        H
|-------------------------------------------------|---------------------------------------|
|-------------------------------------------------|---------------------------------------|
|-------------------------------------------------|---------------------------------------|
|-------------------------------------------------|---------------------------------------|
|--3----------------------------------------------|-5----5--------------------------------|
|--1----------------------------------------------|-3----3--------------------------------|
|
|  S  S  S  S  S  S  S  S  S  S  S  S  S  S  S  S   S S  S S S S  S S S S S S  S  S  S  S
|-------------------------------------10----------|-7-----------------7---8---10----------|
|-10----12----13----10----12----13-------13-12-13-|-----10---8---10--------------13-12-13-|
|----10----10----10----10----10----10-------------|---7----7---7----7---7---7-------------|
|-------------------------------------------------|---------------------------------------|
|-------------------------------------------------|---------------------------------------|
|-------------------------------------------------|---------------------------------------|


  D5                      E5                     A5
   H                       H                      W
|----------------------------------------------|-------------------------------------------|
|----------------------------------------------|-------------------------------------------|
|----------------------------------------------|-------------------------------------------|
|--7-----------------------9-------------------|-------------------------------------------|
|--5-----------------------7-------------------|--7----------------------------------------|
|----------------------------------------------|--5----------------------------------------|
|
|  S  S  S  S  S  S  S  S  S S  S S  S  S S  S    S S  S S  S S  S S  S S  S S  S  S  S  S
|-10----------10-------10----------------------|-------------------------------10----------|
|-------10----------10----12---10---12-10-9-10-|-10---12---13---10---12---13------13-12-13-|
|----10----10----10----------9----9------------|----9----9----9----9----9----9-------------|
|----------------------------------------------|-------------------------------------------|
|----------------------------------------------|-------------------------------------------|
|----------------------------------------------|-------------------------------------------|


  F5
   W
|-------------------------------------------------|
|-------------------------------------------------|
|-------------------------------------------------|
|-------------------------------------------------|
|--3----------------------------------------------|
|--1----------------------------------------------|
|
|  S  S  S  S  S  S  S  S  S  S  S  S  S  S  S  S
|-------------------------------------10----------|
|-10----12----13----10----12----13-------13-12-13-|
|----10----10----10----10----10----10-------------|
|-------------------------------------------------|
|-------------------------------------------------|
|-------------------------------------------------|


  G5                                       C5                      G5
  W                                         H                       H
|----------------------------------------|-------------------------------------------------||
|----------------------------------------|-------------------------------------------------||
|----------------------------------------|-------------------------------------------------||
|----------------------------------------|--5----------------------------------------------||
|-5--------------------------------------|--3-----------------------5----------------------||
|-3--------------------------------------|--------------------------3----------------------||
|
| S S  S S S S  S S S S  S S  S  S  S  S    S  S  S  S  S  S  S  S  S  S  S  S  S  S  S  S
|-7-----------------7--------10----------|-12----------12-------12-------------10-------10-||
|-----10---8---10-------13------13-12-13-|-------13----------13----15----12-------13-12----||
|---7----7---7----7---7----7-------------|----12----12----12----------12----12-------------||
|----------------------------------------|-------------------------------------------------||
|----------------------------------------|-------------------------------------------------||
|----------------------------------------|-------------------------------------------------||


 1st Verse - T.Kako
  A5
        PM|       PM|       PM|        PM|
   E    S S  E    S S  E    S S  E     S  S
|-------------------------------------------|
|-------------------------------------------|
|-------------------------------------------|
|--2---------2---------2---------2----------|
|--0----0-0--0----0-0--0----0-0--0-----0--0-|
|-------------------------------------------|
|
|  S S  S S  S S  S S  S S  S S  S  S  S  S
|-------------------------------10----------|
|-10---12---13---10---12---13------13-12-13-|
|----9----9----9----9----9----9-------------|
|-------------------------------------------|
|-------------------------------------------|
|-------------------------------------------|


  F5
         PM|         PM|         PM|
                                       |----3----|
   E     S  S  E     S  S  E     S  S  E    E    E
|-----------------------------------------------------|
|-----------------------------------------------------|
|-----------------------------------------------------|
|-----------------------------------------------------|
|--3-----------3-----------3-----------5----3----2----|
|--1-----1--1--1-----1--1--1-----1--1-----------------|
|
|  S  S  S  S  S  S  S  S  S  S  S  S  S  S    S    S
|-------------------------------------10--------------|
|-10----12----13----10----12----13-------13---12---13-|
|----10----10----10----10----10----10-----------------|
|-----------------------------------------------------|
|-----------------------------------------------------|
|-----------------------------------------------------|


  G5                                      D5
       PM|      PM|     PM|        PM|                                  PM|       PM|
  E    S S E    S S E   S S  E     S  S    H                       E    S S  E    S  S
|---------------------------------------|------------------------------------------------|
|---------------------------------------|------------------------------------------------|
|---------------------------------------|------------------------------------------------|
|---------------------------------------|--7---------------------------------------------|
|-5--------5--------5--------5----------|--5-----------------------5----7-7--5----7--7---|
|-3----3-3-3----3-3-3---3-3--3-----3--3-|------------------------------------------------|
|
| S S  S S S S  S S S S S S  S  S  S  S    S  S  S  S  S  S  S  S  S S  S S  S  S S  S
|-7-----------------7---8---10----------|-10----------10-------10------------------------|
|-----10---8---10--------------13-12-13-|-------10----------10----12---10---12-10-9-10---|
|---7----7---7----7---7---7-------------|----10----10----10----------9----9--------------|
|---------------------------------------|------------------------------------------------|
|---------------------------------------|------------------------------------------------|
|---------------------------------------|------------------------------------------------|


  A5
        PM|       PM|       PM|        PM|
   E    S S  E    S S  E    S S  E     S  S
|-------------------------------------------|
|-------------------------------------------|
|-------------------------------------------|
|--2---------2---------2---------2----------|
|--0----0-0--0----0-0--0----0-0--0-----0--0-|
|-------------------------------------------|
|
|  S S  S S  S S  S S  S S  S S  S  S  S  S
|-------------------------------10----------|
|-10---12---13---10---12---13------13-12-13-|
|----9----9----9----9----9----9-------------|
|-------------------------------------------|
|-------------------------------------------|
|-------------------------------------------|


  F5                                                    G5
         PM|         PM|         PM|                         PM|      PM|     PM|        PM|
                                       |----3----|
   E     S  S  E     S  S  E     S  S  E    E    E      E    S S E    S S E   S S  E     S  S
|-----------------------------------------------------|-----------------------------------------|
|-----------------------------------------------------|-----------------------------------------|
|-----------------------------------------------------|-----------------------------------------|
|-----------------------------------------------------|-----------------------------------------|
|--3-----------3-----------3-----------5----3----2----|-5--------5--------5--------5------------|
|--1-----1--1--1-----1--1--1-----1--1-----------------|-3----3-3-3----3-3-3---3-3--3-----3--3---|
|
|  S  S  S  S  S  S  S  S  S  S  S  S  S  S    S    S   S S  S S S S  S S S S S S  S  S  S  S
|-------------------------------------10--------------|-7-----------------7---8---10------------|
|-10----12----13----10----12----13-------13---12---13-|-----10---8---10--------------13-12-13---|
|----10----10----10----10----10----10-----------------|---7----7---7----7---7---7---------------|
|-----------------------------------------------------|-----------------------------------------|
|-----------------------------------------------------|-----------------------------------------|
|-----------------------------------------------------|-----------------------------------------|


  C5                      G5
   H                       H
|-------------------------------------------------||
|-------------------------------------------------||
|-------------------------------------------------||
|--5----------------------------------------------||
|--3-----------------------5----------------------||
|--------------------------3----------------------||
|
|  S  S  S  S  S  S  S  S  S  S  S  S  S  S  S  S
|-12----------12-------12-10----------10-------10-||
|-------13----------13----------12-------13-12----||
|----12----12----12----------12----12-------------||
|-------------------------------------------------||
|-------------------------------------------------||
|-------------------------------------------------||


 2nd Verse - T.Turunen
   A5          D5          F5
    W           W           W
|------------|-----------|-------|
|------------|-----------|-------|
|------------|-----------|-------|
|------------|--7--------|-------|
|---7--------|--5--------|--3----|
|---5--------|-----------|--1----|
|
| Gtr III
|   W           W           W
|---8--------|-----------|-------|
|--10--------|-10--------|-10----|
|---9--------|-11--------|-10----|
|------------|-12--------|-10----|
|------------|-----------|-------|
|------------|-----------|-------|


  A5    G5         A5                 D5          F5
   H    S  S S S E  E    +W            W           W
|---------------------|-------------|-----------|-------|
|---------------------|-------------|-----------|-------|
|---------------------|-------------|-----------|-------|
|---------------------|-------------|--7--------|-------|
|--7----5--5---5-5--7-|--(7)--------|--5--------|--3----|
|--5----3--3---3-3--5-|--(5)--------|-----------|--1----|
|
|  H    Q.          E    +W            W           W
|--8----7-----------8-|--(8)--------|-----------|-------|
|-10----8----------10-|-(10)--------|-10--------|-10----|
|--9----7-----------9-|--(9)--------|-11--------|-10----|
|---------------------|-------------|-12--------|-10----|
|---------------------|-------------|-----------|-------|
|---------------------|-------------|-----------|-------|


                       3rd Verse - T.Kako
  A5    G5              A5
                              PM|       PM|       PM|        PM|
   H    S  S S S E E     E    S S  E    S S  E    S S  E     S  S
|--------------------||-------------------------------------------|
|--------------------||-------------------------------------------|
|--------------------||-------------------------------------------|
|--------------------||--2---------2---------2---------2----------|
|--7----5--5---5-5---||--0----0-0--0----0-0--0----0-0--0-----0--0-|
|--5----3--3---3-3---||-------------------------------------------|
|
|                       Gtrs III, IV
|  H    Q.         E     S S  S S  S S  S S  S S  S S  S  S  S  S
|--8----7------------||-------------------------------10----------|
|-10----8------------||-10---12---13---10---12---13------13-12-13-|
|--9----7------------||----9----9----9----9----9----9-------------|
|--------------------||-------------------------------------------|
|--------------------||-------------------------------------------|
|--------------------||-------------------------------------------|


  F5
         PM|         PM|         PM|
                                       |----3----|
   E     S  S  E     S  S  E     S  S  E    E    E
|------------------------------------------------------|
|------------------------------------------------------|
|------------------------------------------------------|
|------------------------------------------------------|
|--3-----------3-----------3-----------5----3----2-----|
|--1-----1--1--1-----1--1--1-----1--1------------------|
|
|  S  S  S  S  S  S  S  S  S  S  S  S  S  S    S    S
|-------------------------------------10---------------|
|-10----12----13----10----12----13-------13---12---13--|
|----10----10----10----10----10----10------------------|
|------------------------------------------------------|
|------------------------------------------------------|
|------------------------------------------------------|


  G5                                      D5
       PM|      PM|     PM|        PM                                   PM|       PM|
  E    S S E    S S E   S S  E     S  S    H                       E    S S  E    S  S
|---------------------------------------|----------------------------------------------|
|---------------------------------------|----------------------------------------------|
|---------------------------------------|----------------------------------------------|
|---------------------------------------|--7-------------------------------------------|
|-5--------5--------5--------5----------|--5-----------------------5----7-7--5----7--7-|
|-3----3-3-3----3-3-3---3-3--3-----3--3-|----------------------------------------------|
|
| Gtrs III, IV
| S S  S S S S  S S S S S S  S  S  S  S    S  S  S  S  S  S  S  S  S S  S S  S  S S  S
|-7-----------------7---8---10----------|-10----------10-------10----------------------|
|-----10---8---10--------------13-12-13-|-------10----------10----12---10---12-10-9-10-|
|---7----7---7----7---7---7-------------|----10----10----10----------9----9------------|
|---------------------------------------|----------------------------------------------|
|---------------------------------------|----------------------------------------------|
|---------------------------------------|----------------------------------------------|


  A5
        PM|       PM|       PM|        PM|
   E    S S  E    S S  E    S S  E     S  S
|-------------------------------------------|
|-------------------------------------------|
|-------------------------------------------|
|--2---------2---------2---------2----------|
|--0----0-0--0----0-0--0----0-0--0-----0--0-|
|-------------------------------------------|
|
|  S S  S S  S S  S S  S S  S S  S  S  S  S
|-------------------------------10----------|
|-10---12---13---10---12---13------13-12-13-|
|----9----9----9----9----9----9-------------|
|-------------------------------------------|
|-------------------------------------------|
|-------------------------------------------|


  F5
         PM|         PM|         PM|
                                       |----3----|
   E     S  S  E     S  S  E     S  S  E    E    E
|-----------------------------------------------------|
|-----------------------------------------------------|
|-----------------------------------------------------|
|-----------------------------------------------------|
|--3-----------3-----------3-----------5----3----2----|
|--1-----1--1--1-----1--1--1-----1--1-----------------|
|
|  S  S  S  S  S  S  S  S  S  S  S  S  S  S    S    S
|-------------------------------------10--------------|
|-10----12----13----10----12----13-------13---12---13-|
|----10----10----10----10----10----10-----------------|
|-----------------------------------------------------|
|-----------------------------------------------------|
|-----------------------------------------------------|


  G5                                      C5                      G5
       PM|      PM|     PM|        PM|
  E    S S E    S S E   S S  E     S  S    H                       H
|---------------------------------------|---------------------------------------------------||
|---------------------------------------|---------------------------------------------------||
|---------------------------------------|---------------------------------------------------||
|---------------------------------------|--5------------------------------------------------||
|-5--------5--------5--------5----------|--3-----------------------5------------------------||
|-3----3-3-3----3-3-3---3-3--3-----3--3-|--------------------------3------------------------||
|
| S S  S S S S  S S S S S S  S  S  S  S    S  S  S  S  S  S  S  S  S  S  S  S  S  S  S  S
|-7-----------------7---8---10----------|-12----------12-------12-10----------10-------10---||
|-----10---8---10--------------13-12-13-|-------13----------13----------12-------13-12------||
|---7----7---7----7---7---7-------------|----12----12----12----------12----12---------------||
|---------------------------------------|---------------------------------------------------||
|---------------------------------------|---------------------------------------------------||
|---------------------------------------|---------------------------------------------------||


 4th Verse - T.Turunen
  A5          D5         F5         A5    G5         A5
                                          PM-------|
   W          W          W           H    S  S S S E  E
|-----------|----------|----------|-----------------------|
|-----------|----------|----------|-----------------------|
|-----------|----------|----------|-----------------------|
|-----------|-7--------|----------|-----------------------|
|--7--------|-5--------|-3--------|--7----5--5---5-5--7---|
|--5--------|----------|-1--------|--5----3--3---3-3--5---|
|
| Gtr III
|  W          W          W           H    Q.          E
|--8--------|-5--------|-5--------|--8----7-----------8---|
|-10--------|-7--------|-6--------|-10----8----------10---|
|--9--------|-7--------|-5--------|--9----7-----------9---|
|-----------|----------|----------|-----------------------|
|-----------|----------|----------|-----------------------|
|-----------|----------|----------|-----------------------|


                D5         F5         A5    G5
                                            PM---------|
   +W           W          W           H    S  S S S E E    Wx4
|-------------|----------|----------|--------------------||--------||
|-------------|----------|----------|--------------------||--------||
|-------------|----------|----------|--------------------||--------||
|-------------|-7--------|----------|--------------------||--------||
|--(7)--------|-5--------|-3--------|--7----5--5---5-5---||--------||
|--(5)--------|----------|-1--------|--5----3--3---3-3---||--------||
|
|  +W           W          W           H    Q.         E    Wx4
|--(8)--------|-5--------|-5--------|--8----7------------||--------||
|-(10)--------|-7--------|-6--------|-10----8------------||--------||
|--(9)--------|-7--------|-5--------|--9----7------------||--------||
|-------------|----------|----------|--------------------||--------||
|-------------|----------|----------|--------------------||--------||
|-------------|----------|----------|--------------------||--------||


  Eb5  F5      Eb5  F5      Eb5  F5      Eb5  F5
  Gtr II
  H     H      H     H      H     H      H     H
|------------|------------|------------|------------|
|------------|------------|------------|------------|
|-8----10----|-8----10----|-8----10----|-8----10----|
|-8----10----|-8----10----|-8----10----|-8----10----|
|-6-----8----|-6-----8----|-6-----8----|-6-----8----|
|------------|------------|------------|------------|
|
| Gtr III
| H     H      H     H      H     H      H     H
|-6-----5----|-6-----5----|-6-----5----|-6-----5----|
|-7-----6----|-7-----6----|-7-----6----|-7-----6----|
|-8-----5----|-8-----5----|-8-----5----|-8-----5----|
|------------|------------|------------|------------|
|------------|------------|------------|------------|
|------------|------------|------------|------------|


  Bb5                                   F#
  W          +W           +W            W
|----------|------------|------------||------|
|----------|------------|------------||------|
|-3--------|-(3)--------|-(3)--------||------|
|-3--------|-(3)--------|-(3)--------||------|
|-1--------|-(1)--------|-(1)--------||------|
|----------|------------|------------||------|
|
| W          +W           +W            W
|----------|------------|------------||-2----|
|-6--------|-(6)--------|-(6)--------||-2----|
|-6--------|-(6)--------|-(6)--------||-3----|
|-8--------|-(8)--------|-(8)--------||------|
|----------|------------|------------||------|
|----------|------------|------------||-2----|


  Ebm/F#     C#          Bbm        F#
  Gtr III
  W          H    H      W          W
|-2--------|-----------|-1--------|-2----||
|-4--------|-6---------|-2--------|-2----||
|-3--------|-6---------|-3--------|-3----||
|----------|-6---------|----------|------||
|----------|-4----3----|-1--------|------||
|-2--------|-----------|----------|-2----||


 Guitar Solo - E.Vuorinen
  C#                G#              Bbm                 F#
  Gtr I
    H     Q.    E    H     Q   Q     Q  Q  +E  E E  E    Q.    E  Q.   E
|-----------------|------------8--|-11--9--(9)-8-9-11-|-14----13-11----9-|
|-----------------|-------11------|-------------------|------------------|
|-/13----11----10-|-------11--10--|-------------------|------------------|
|-----------------|-13------------|-------------------|------------------|
|-----------------|---------------|-------------------|------------------|
|-----------------|---------------|-------------------|------------------|
|                    H     Q   Q
|
| Gtr III
|   W                W               W                   W
|-----------------|---------------|-------------------|--2---------------|
|---6-------------|--4------------|--6----------------|--2---------------|
|---6-------------|--5------------|--6----------------|--3---------------|
|---6-------------|--6------------|--8----------------|------------------|
|---4-------------|---------------|-------------------|------------------|
|-----------------|--4------------|--6----------------|--2---------------|


  Ebm/F#         C#                  Bbm                    F#
   H.       Q     H     E  E  E  E    Q   Q   +E  E  E  E    Q.    E  Q   Q
|--------------|--------9----11----|-11---9---(9)-8--9-11-|-14----13-11---9--|
|--------------|-------11-11-13-13-|-13--11--(11)-9-11-13-|-16----14-13--11--|
|-11-------11--|-10-------10----10-|----------------------|------------------|
|--------------|-------------------|----------------------|------------------|
|--------------|-------------------|----------------------|------------------|
|--------------|-------------------|----------------------|------------------|
|                 H     E  E  E  E    Q   Q   +E  E  E  E    Q.    E  Q   Q
|
|  W              H     H             W                      W
|--2-----------|-------------------|--1-------------------|--2---------------|
|--4-----------|--6----------------|--2-------------------|--2---------------|
|--3-----------|--6----------------|--3-------------------|--3---------------|
|--------------|--6----------------|----------------------|------------------|
|--------------|--4-----3----------|--1-------------------|------------------|
|--2-----------|-------------------|----------------------|--2---------------|


                               Bridge - T.Turunen
  C#               G#           G5         F5
   H.       E  E    W           W          W
|----------------|-----------||----------|------|
|-14-------13-14-|-13--------||----------|------|
|-13-------13-15-|-13--------||----------|------|
|----------------|-----------||----------|------|
|----------------|-----------||-5--------|-3----|
|----------------|-----------||-3--------|-1----|
|  H.       E  E    W
|
|  W                W           W          W
|----------------|-----------||-6--------|-5----|
|--6-------------|--4--------||-8--------|-6----|
|--6-------------|--5--------||-7--------|-5----|
|--6-------------|--6--------||----------|------|
|--4-------------|-----------||----------|------|
|----------------|--4--------||----------|------|


  Bb5         F5          G5          F5
  Gtr II
   W           W           W           W
|-----------|-----------|-----------|-------|
|-----------|-----------|-----------|-------|
|-----------|-----------|-----------|-------|
|--3--------|-----------|-----------|-------|
|--1--------|--3--------|--5--------|--3----|
|-----------|--1--------|--3--------|--1----|
|
| Gtr III
|  W           W           W           W
|-----------|-----------|-----------|-------|
|-15--------|-13--------|-11--------|-10----|
|-15--------|-14--------|-12--------|-10----|
|-15--------|-15--------|-12--------|-10----|
|-----------|-----------|-----------|-------|
|-----------|-----------|-----------|-------|


  C5          Bb5   C5      G5          F5
   W           H     H       W           W
|-----------|-------------|-----------|-------|
|-----------|-------------|-----------|-------|
|-----------|-------------|-----------|-------|
|--5--------|--3-----5----|-----------|-------|
|--3--------|--1-----3----|--5--------|--3----|
|-----------|-------------|--3--------|--1----|
|
|  W           H     H       W           W
|-11--------|-10----11----|-----------|-------|
|-13--------|-11----13----|-11--------|-10----|
|-12--------|-10----12----|-12--------|-10----|
|-----------|-------------|-12--------|-10----|
|-----------|-------------|-----------|-------|
|-----------|-------------|-----------|-------|


  Bb5         F5          G5         F5
   W           W          W          W
|-----------|-----------|----------|------|
|-----------|-----------|----------|------|
|-----------|-----------|----------|------|
|--3--------|-----------|----------|------|
|--1--------|--3--------|-5--------|-3----|
|-----------|--1--------|-3--------|-1----|
|
|  W           W          W          W
|-10--------|--8--------|-6--------|-5----|
|-11--------|-10--------|-8--------|-6----|
|-10--------|-10--------|-7--------|-5----|
|-----------|-----------|----------|------|
|-----------|-----------|----------|------|
|-----------|-----------|----------|------|


  C5          Bb5   C5      G5                         F#5
                                                      2/4
   W           H     H       W           +W            H
|-----------|-------------|-----------|-------------||------||
|-----------|-------------|-----------|-------------||------||
|-----------|-------------|-----------|-------------||------||
|--5--------|--3-----5----|-----------|-------------||------||
|--3--------|--1-----3----|--5--------|--(5)--------||-4----||
|-----------|-------------|--3--------|--(3)--------||-2----||
|
|  W           H     H       W           +W            W
|-11--------|-10----11----|-15--------|-(15)--------||------||
|-13--------|-11----13----|-15--------|-(15)--------||------||
|-12--------|-10----12----|-12--------|-(12)--------||------||
|-----------|-------------|-----------|-------------||------||
|-----------|-------------|-----------|-------------||------||
|-----------|-------------|-----------|-------------||------||


  Moderately Q=90
  E
 4/4
  Gtrs II, III                         Gtr III
  W          +W           +W           +E   S  S  e  e  S  S  e  e  e
|----------|------------|------------|--------------------------------|
|----------|------------|------------|-----12-12-12-10-12-12-13-12-10-|
|----------|------------|------------|-----12-12-12-11-12-12-14-12-11-|
|----------|------------|------------|-----14-14-14-14-14-14-14-14-14-|
|----------|------------|------------|--------------------------------|
|-0--------|-(0)--------|-(0)--------|-(0)----------------------------|


  W          E  S  S  e  e  S  S  e  e  e   W
|----------|------------------------------|------||
|----------|---12-12-12-10-12-12-13-12-10-|------||
|----------|---12-12-12-11-12-12-14-12-11-|------||
|----------|---14-14-14-14-14-14-14-14-14-|------||
|----------|------------------------------|------||
|----------|------------------------------|------||


  E5                                                   C5  A5
  Gtr II
  PM-------------------------------------------------|
  E  S  S  E  S S  E     S S  E  S S   E  S  S  E  S S  Q   Q
|------------------------------------|---------------------------|
|------------------------------------|---------------------------|
|------------------------------------|---------------------------|
|------------------------------------|------------------5---2----|
|-2--2--2--2--2-2--2-----2-2--2--2-2-|-2--2--2--2--2-2--3---0----|
|-0--0--0--0--0-0--0-----0-0--0--0-0-|-0--0--0--0--0-0-----------|
|
| Gtr III
| E  S  S  e  e    S  S  e    e  e     E  S  S  e  e    Q   e  e
|------------------------------------|---------------------------|
|---12-12-12-10---12-12-13---12-10---|---12-12-12-10----8--------|
|---12-12-12-11---12-12-14---12-11---|---12-12-12-11----9---9--9-|
|---14-14-14-14---14-14-14---14-14---|---14-14-14-14---10--12-10-|
|------------------------------------|---------------------12-12-|
|------------------------------------|---------------------------|


  E5
  PM-------------------------------|
  E  S  S  E  S S  E     S S  E  S S
|-------------------------------------|
|-------------------------------------|
|-------------------------------------|
|-------------------------------------|
|-2--2--2--2--2-2--2-----2-2--2--2-2--|
|-0--0--0--0--0-0--0-----0-0--0--0-0--|
|
| E  S  S  e  e    S  S  e    e  e
|-------------------------------------|
|---12-12-12-10---12-12-13---12-10----|
|---12-12-12-11---12-12-14---12-11----|
|---14-14-14-14---14-14-14---14-14----|
|-------------------------------------|
|-------------------------------------|


                  C5  A5      E5
  PM------------|             PM----------------------------------
  E  S  S  E  S S  Q   Q      E  S  S  E  S S  E     S S  E  S S
|---------------------------|------------------------------------|
|---------------------------|------------------------------------|
|---------------------------|------------------------------------|
|------------------5---2----|------------------------------------|
|-2--2--2--2--2-2--3---0----|-2--2--2--2--2-2--2-----2-2--2--2-2-|
|-0--0--0--0--0-0-----------|-0--0--0--0--0-0--0-----0-0--0--0-0-|
|
| E  S  S  e  e    Q   e  e   E  S  S  e  e    S  S  e    e  e
|---------------------------|------------------------------------|
|---12-12-12-10----8--------|---12-12-12-10---12-12-13---12-10---|
|---12-12-12-11----9---9--9-|---12-12-12-11---12-12-14---12-11---|
|---14-14-14-14---10--12-10-|---14-14-14-14---14-14-14---14-14---|
|---------------------12-12-|------------------------------------|
|---------------------------|------------------------------------|


                  C5       A5
 ---------------|
  E  S  S  E  S S  Q        Q
|--------------------------------|
|--------------------------------|
|--------------------------------|
|------------------5--------2----|
|-2--2--2--2--2-2--3--------0----|
|-0--0--0--0--0-0----------------|
|
| E  S  S  e  e    S  S  e  e  e
|--------------------------------|
|---12-12-12-10----8--8--8-------|
|---12-12-12-11----9--9--9--9--9-|
|---14-14-14-14---10-10-10-12-10-|
|--------------------------12-12-|
|--------------------------------|


  E5
  W
  PM----------------------------------
  E  S  S  E  S S  E     S S  E  S S
|------------------------------------|
|------------------------------------|
|------------------------------------|
|------------------------------------|
|-2--2--2--2--2-2--2-----2-2--2--2-2-|
|-0--0--0--0--0-0--0-----0-0--0--0-0-|
|
| E  S  S  e  e    S  S  e    e  e
|------------------------------------|
|---12-12-12-10---12-12-13---12-10---|
|---12-12-12-11---12-12-14---12-11---|
|---14-14-14-14---14-14-14---14-14---|
|------------------------------------|
|------------------------------------|


                  C5  A5       F5
                               Gtr I
  W                            W
                               |
                               /

 ---------------|                PM|         PM|
  E  S  S  E  S S  Q   Q       E S S E E E   S S E E
|---------------------------||-----------------------|
|---------------------------||-----------------------|
|---------------------------||-----------------------|
|------------------5---2----||-------3-2---------3---|
|-2--2--2--2--2-2--3---0----||-----------------------|
|-0--0--0--0--0-0-----------||---1-1---------1-1-----|
|
| E  S  S  e  e    Q   e  e    E S S e e S S e   e e
|---------------------------||-----------------------|
|---12-12-12-10----8--------||---1-1-1-1-1-1-1---1-1-|
|---12-12-12-11----9---9--9-||---4-4-4-4-2-2-2---2-2-|
|---14-14-14-14---10--12-10-||---3-3-3-3-3-3-3---3-3-|
|---------------------12-12-||-----------------------|
|---------------------------||-----------------------|


                                 E5
  +W                             W                      W
   |
   /

     PM|
                   |----6----|
   E S S Q   Q     S S S S S S   W                     +W
|------------------------------|---------------------|-----------------------|
|------------------------------|---------------------|-----------------------|
|------------------------------|---------------------|-----------------------|
|--------3---------------------|---------------------|-----------------------|
|------------------8-7-5-------|-2-------------------|-(2)-------------------|
|----1-1-----------------8-7-5-|-0-------------------|-(0)-------------------|
|
| Gtr III
|  E S S e e S S e e     e       E S S e e S S e e e    E  S S e e S S e e e
|------------------------------|---------------------|-----------------------|
|----1-1-1-1-1-1-1-1-----1-----|---0-0-0-0-0-0-0-0-0-|-----0-0-0-0-0-0-0-0-0-|
|----4-4-4-4-2-2-2-2-----2-----|---2-2-2-2-1-1-1-1-1-|-----2-2-2-2-1-1-1-1-1-|
|----3-3-3-3-3-3-3-3-----3-----|---2-2-2-2-2-2-2-2-2-|-----2-2-2-2-2-2-2-2-2-|
|------------------------------|---------------------|-----------------------|
|------------------------------|---------------------|-----------------------|


  F5
  W                       +W
  |                        |
  /                        /

  Gtr I
                             PM|
                                           |----6----|
  E S S E E E   S S E E    E S S Q   Q     S S S S S S
|-----------------------|------------------------------|
|-----------------------|------------------------------|
|-----------------------|------------------------------|
|-------3-2---------3---|--------3---------------------|
|-----------------------|------------------8-7-5-------|
|---1-1---------1-1-----|----1-1-----------------8-7-5-|
|
| Gtr III
| E S S e e S S e   e e    E S S e e S S e e     e
|-----------------------|------------------------------|
|---1-1-1-1-1-1-1---1-1-|----1-1-1-1-1-1-1-1-----1-----|
|---4-4-4-4-2-2-2---2-2-|----4-4-4-4-2-2-2-2-----2-----|
|---3-3-3-3-3-3-3---3-3-|----3-3-3-3-3-3-3-3-----3-----|
|-----------------------|------------------------------|
|-----------------------|------------------------------|


  E5
  W
  |
  /

    PM|
  E S S Q   +H
|-------------------------|
|-------------------------|
|-------9---(9)-----------|
|-------------------------|
|---7-7-------------------|
|-------------------------|
|
| E S S e e  S  S e e e
|-------------------------|
|---0-0-0-0--0--0-0-0-0---|
|---2-2-2-2--1--1-1-1-1---|
|---2-2-2-2--2--2-2-2-2---|
|-------------------------|
|-------------------------|


                          Outro
                           E5
                            PM--------------------------------------
  +W                        E     S  S  E  S S  E     S  S  E  S S
|-----------------------||-----------------------------------------|
|-----------------------||-----------------------------------------|
|-(9)-------------------||-----------------------------------------|
|-----------------------||-----------------------------------------|
|-----------------------||--2-----2--2--2--2-2--2-----2--2--2--2-2-|
|-----------------------||--0-----0--0--0--0-0--0-----0--0--0--0-0-|
|
|                          Gtr III
|  E  S S e e S S e e e     E     S  S  e  e    S  S  e     e  e
|-----------------------||-----------------------------------------|
|-----0-0-0-0-0-0-0-0-0-||-------12-12-12-10---12-12-13----12-10---|
|-----2-2-2-2-1-1-1-1-1-||-------12-12-12-11---12-12-14----12-11---|
|-----2-2-2-2-2-2-2-2-2-||-------14-14-14-14---14-14-14----14-14---|
|-----------------------||-----------------------------------------|
|-----------------------||-----------------------------------------|
|
|                          Gtr IV
|  W                        S  S  S  S  e  e    e     S  S  e  e
|-----------------------||-19-17-15---------------------14-15-17---|
|-----------------------||----------19-17-17---17----17------------|
|-----------------------||-----------------------------------------|
|-----------------------||-----------------------------------------|
|-----------------------||-----------------------------------------|
|-----------------------||-----------------------------------------|


                       C5       A5
 -------------------|
   E  S  S  E     S  S  Q        Q
|--------------------------------------|
|--------------------------------------|
|--------------------------------------|
|-----------------------5--------2-----|
|--2--2--2--2-----2--2--3--------0-----|
|--0--0--0--0-----0--0-----------------|
|
|  E  S  S  e     e     Q        e  e
|--------------------------------------|
|----12-12-12----10-----8--------------|
|----12-12-12----11-----9--------9--9--|
|----14-14-14----14----10-------12-10--|
|-------------------------------12-12--|
|--------------------------------------|
|
|  e  E     S  S  S  S  e  S  S  e  e
|-19-------19-20-19-17-19-19-20-22-20--|
|--------------------------------------|
|--------------------------------------|
|--------------------------------------|
|--------------------------------------|
|--------------------------------------|


  E5
   PM---------------------------------------------
   E     S  S  E     S S  E     S  S  E     S  S
|------------------------------------------------|
|------------------------------------------------|
|------------------------------------------------|
|------------------------------------------------|
|--2-----2--2--2-----2-2--2-----2--2--2-----2--2-|
|--0-----0--0--0-----0-0--0-----0--0--0-----0--0-|
|
|  E     S  S  e     e    S  S  e     e     e
|------------------------------------------------|
|-------12-12-12----10---12-12-13----12----10----|
|-------12-12-12----11---12-12-14----12----11----|
|-------14-14-14----14---14-14-14----14----14----|
|------------------------------------------------|
|------------------------------------------------|
|
|  S  S  S  S  S  S  e    e     S  S  S  S  S  S
|-19-20-19-17-19-19------------19-20-19-17-19-20-|
|-------------------17---17----------------------|
|------------------------------------------------|
|------------------------------------------------|
|------------------------------------------------|
|------------------------------------------------|


                      C5       A5         E5
 -------------------|                      PM-------------------------------------|
   E     S  S  E  S S  Q        Q          E     S  S  E  S S  E     S S  E     S  S
|---------------------------------------|---------------------------------------------|
|---------------------------------------|---------------------------------------------|
|---------------------------------------|---------------------------------------------|
|----------------------5--------2-------|---------------------------------------------|
|--2-----2--2--2--2-2--3--------0-------|--2-----2--2--2--2-2--2-----2-2--2-----2--2--|
|--0-----0--0--0--0-0-------------------|--0-----0--0--0--0-0--0-----0-0--0-----0--0--|
|
|  E     S  S  e  e    e  S  S  e  e       E     S  S  e  e    S  S  e    e     e
|---------------------------------------|---------------------------------------------|
|-------12-12-12-10---12-12-12-13-13----|-------12-12-12-10----8--8--8----------------|
|-------12-12-12-11---12-12-12-14-14----|-------12-12-12-11----9--9--9----9-----9-----|
|-------14-14-14-14---12-12-12-14-14----|-------14-14-14-14---10-10-10---12----10-----|
|---------------------------------------|--------------------------------12----12-----|
|---------------------------------------|---------------------------------------------|
|
|  S  S  S  S  e  e    e  S  S  e  S  S    S  S  S  S  e  e    e     E    S  S  S  S
|-22-20-19-17-19------------------------|-19-17-15-----------------------------15-17--|
|----------------17---17-17-19-20-19-17-|----------19-17-17---17---------17-19--------|
|---------------------------------------|---------------------------------------------|
|---------------------------------------|---------------------------------------------|
|---------------------------------------|---------------------------------------------|
|---------------------------------------|---------------------------------------------|


                       C5          A5
   PM---------------|
   E  S  S  E     S  S  Q           Q
|----------------------------------------|
|----------------------------------------|
|----------------------------------------|
|-----------------------5-----------2----|
|--2--2--2--2-----2--2--3-----------0----|
|--0--0--0--0-----0--0-------------------|
|
|  E  S  S  e     e     S  S  e     e  e
|----------------------------------------|
|----12-12-12----10-----8--8--8----------|
|----12-12-12----11-----9--9--9-----9--9-|
|----14-14-14----14----10-10-10----12-10-|
|----------------------------------12-12-|
|----------------------------------------|
|
|  e  E     S  S  S  S  e     S  S  e  e
|-19-------19-20-19-17-19----19-20-22-20-|
|----------------------------------------|
|----------------------------------------|
|----------------------------------------|
|----------------------------------------|
|----------------------------------------|


  E5                                                                   C5       A5
   PM----------------------------------------------------------------|
   E     S  S  E     S S  E     S  S  E     S  S    E     S  S  E  S S  Q        Q
|------------------------------------------------|-------------------------------------|
|------------------------------------------------|-------------------------------------|
|------------------------------------------------|-------------------------------------|
|------------------------------------------------|----------------------5--------2-----|
|--2-----2--2--2-----2-2--2-----2--2--2-----2--2-|--2-----2--2--2--2-2--3--------0-----|
|--0-----0--0--0-----0-0--0-----0--0--0-----0--0-|--0-----0--0--0--0-0-----------------|
|
|  E     S  S  e     e    S  S  e     e     e       E     S  S  e  e    e  S  S  e  e
|------------------------------------------------|-------------------------------------|
|-------12-12-12----10---12-12-13----12----10----|-------12-12-12-10---12-12-12-13-13--|
|-------12-12-12----11---12-12-14----12----11----|-------12-12-12-11---12-12-12-14-14--|
|-------14-14-14----14---14-14-14----14----14----|-------14-14-14-14---12-12-12-14-14--|
|------------------------------------------------|-------------------------------------|
|------------------------------------------------|-------------------------------------|
|
|  S  S  S  S  S  S  e    e     S  S  S  S  S  S    S  S  S  S  e  e    e  S  S  e  e
|-19-20-19-17-19-19------------19-20-19-17-19-20-|-22-20-19-17-19----------------------|
|-------------------17---17----------------------|----------------17---17-17-19-20-22--|
|------------------------------------------------|-------------------------------------|
|------------------------------------------------|-------------------------------------|
|------------------------------------------------|-------------------------------------|
|------------------------------------------------|-------------------------------------|


  G5
  PM----------------------------------
  E  S  S  E  S S  E     S S  E  S S
|------------------------------------|
|------------------------------------|
|------------------------------------|
|------------------------------------|
|-5--5--5--5--5-5--5-----5-5--5--5-5-|
|-3--3--3--3--3-3--3-----3-3--3--3-3-|
|
| E  S  S  e  e    S  S  e    e  e
|------------------------------------|
|---11-11-11-10---11-11-13---11-10---|
|---12-12-12-12---12-12-12---12-12---|
|---12-12-12-12---12-12-12---12-12---|
|------------------------------------|
|------------------------------------|


                  F5               G5
 ---------------|                  PM-------------------------------|
  E  S  S  E  S S  H               E  S  S  E  S S  E     S S  E  S S
|--------------------------------|------------------------------------|
|--------------------------------|------------------------------------|
|--------------------------------|------------------------------------|
|------------------3-------------|------------------------------------|
|-5--5--5--5--5-5--3-------------|-5--5--5--5--5-5--5-----5-5--5--5-5-|
|-3--3--3--3--3-3--1-------------|-3--3--3--3--3-3--3-----3-3--3--3-3-|
|
| E  S  S  e  e    e  S  S  e  e   E  S  S  e  e    S  S  e    e  e
|--------------------------------|------------------------------------|
|---11-11-11-11---10-10-10--8----|---11-11-11-10---11-11-13---11-10---|
|---12-12-12-12---10-10-10-10-10-|---12-12-12-12---12-12-12---12-12---|
|---12-12-12-12---10-10-10-10-10-|---12-12-12-12---12-12-12---12-12---|
|--------------------------------|------------------------------------|
|--------------------------------|------------------------------------|


                  F5               G5
  PM------------|                  PM----------------------------------
  E  S  S  E  S S  H               E  S  S  E  S S  E     S S  E  S S
|--------------------------------|------------------------------------|
|--------------------------------|------------------------------------|
|--------------------------------|------------------------------------|
|------------------3-------------|------------------------------------|
|-5--5--5--5--5-5--3-------------|-5--5--5--5--5-5--5-----5-5--5--5-5-|
|-3--3--3--3--3-3--1-------------|-3--3--3--3--3-3--3-----3-3--3--3-3-|
|
| E  S  S  e  e    S  S  e  e  e   E  S  S  e  e    S  S  e    e  e
|---10-10-10-10---11-11-11-10-11-|------------------------------------|
|---11-11-11-11---13-13-13-13-13-|---11-11-11-10---11-11-13---11-10---|
|---10-10-10-10---12-12-12-12-12-|---12-12-12-12---12-12-12---12-12---|
|--------------------------------|---12-12-12-12---12-12-12---12-12---|
|--------------------------------|------------------------------------|
|--------------------------------|------------------------------------|


                  F5
 ---------------|
  E  S  S  E  S S  H
|----------------------------------|
|----------------------------------|
|----------------------------------|
|------------------3---------------|
|-5--5--5--5--5-5--3---------------|
|-3--3--3--3--3-3--1---------------|
|
| E  S  S  e  e    e  S  S  e  e
|----------------------------------|
|---11-11-11-11---10-10-10--8------|
|---12-12-12-12---10-10-10-10-10---|
|---12-12-12-12---10-10-10-10-10---|
|----------------------------------|
|----------------------------------|


  G5
  PM----------------------------------
  E  S  S  E  S S  E     S S  E  S S
|------------------------------------|
|------------------------------------|
|------------------------------------|
|------------------------------------|
|-5--5--5--5--5-5--5-----5-5--5--5-5-|
|-3--3--3--3--3-3--3-----3-3--3--3-3-|
|
| E  S  S  e  e    S  S  e    e  e
|------------------------------------|
|---11-11-11-10---11-11-13---11-10---|
|---12-12-12-12---12-12-12---12-12---|
|---12-12-12-12---12-12-12---12-12---|
|------------------------------------|
|------------------------------------|


                  F5               G5
 ---------------|                  PM-------------------------------|
  E  S  S  E  S S  H               E  S  S  E  S S  E     S S  E  S S
|--------------------------------|------------------------------------|
|--------------------------------|------------------------------------|
|--------------------------------|------------------------------------|
|------------------3-------------|------------------------------------|
|-5--5--5--5--5-5--3-------------|-5--5--5--5--5-5--5-----5-5--5--5-5-|
|-3--3--3--3--3-3--1-------------|-3--3--3--3--3-3--3-----3-3--3--3-3-|
|
| E  S  S  e  e    S  S  e  e  e   E  S  S  e  e    S  S  e    e  e
|---10-10-10-10---11-11-11-10-11-|------------------------------------|
|---11-11-11-11---13-13-13-13-13-|---11-11-11-10---11-11-13---11-10---|
|---10-10-10-10---12-12-12-12-12-|---12-12-12-12---12-12-12---12-12---|
|--------------------------------|---12-12-12-12---12-12-12---12-12---|
|--------------------------------|------------------------------------|
|--------------------------------|------------------------------------|


                  F5               G5
  PM------------|                  PM----------------------------------
  E  S  S  E  S S  H               E  S  S  E  S S  E     S S  E  S S
|--------------------------------|------------------------------------|
|--------------------------------|------------------------------------|
|--------------------------------|------------------------------------|
|------------------3-------------|------------------------------------|
|-5--5--5--5--5-5--3-------------|-5--5--5--5--5-5--5-----5-5--5--5-5-|
|-3--3--3--3--3-3--1-------------|-3--3--3--3--3-3--3-----3-3--3--3-3-|
|
| E  S  S  e  e    e  S  S  e  e   E  S  S  e  e    S  S  e    e  e
|--------------------------------|------------------------------------|
|---11-11-11-11---10-10-10--8----|---11-11-11-10---11-11-13---11-10---|
|---12-12-12-12---10-10-10-10-10-|---12-12-12-12---12-12-12---12-12---|
|---12-12-12-12---10-10-10-10-10-|---12-12-12-12---12-12-12---12-12---|
|--------------------------------|------------------------------------|
|--------------------------------|------------------------------------|


                  F5
 ---------------|
  E  S  S  E  S S  H
|----------------------------------|
|----------------------------------|
|----------------------------------|
|------------------3---------------|
|-5--5--5--5--5-5--3---------------|
|-3--3--3--3--3-3--1---------------|
|
| E  S  S  e  e    S  S  e  e  e
|---10-10-10-10---11-11-11-10-11---|
|---11-11-11-11---13-13-13-13-13---|
|---10-10-10-10---12-12-12-12-12---|
|----------------------------------|
|----------------------------------|
|----------------------------------|


  G5
  PM----------------------------------
  E  S  S  E  S S  E     S S  E  S S
|------------------------------------|
|------------------------------------|
|------------------------------------|
|------------------------------------|
|-5--5--5--5--5-5--5-----5-5--5--5-5-|
|-3--3--3--3--3-3--3-----3-3--3--3-3-|
|
| E  S  S  e  e    S  S  e    e  e
|------------------------------------|
|---11-11-11-10---11-11-13---11-10---|
|---12-12-12-12---12-12-12---12-12---|
|---12-12-12-12---12-12-12---12-12---|
|------------------------------------|
|------------------------------------|


                  F5               G5
 ---------------|                  PM-------------------------------|
  E  S  S  E  S S  H               E  S  S  E  S S  E     S S  E  S S
|--------------------------------|------------------------------------|
|--------------------------------|------------------------------------|
|--------------------------------|------------------------------------|
|------------------3-------------|------------------------------------|
|-5--5--5--5--5-5--3-------------|-5--5--5--5--5-5--5-----5-5--5--5-5-|
|-3--3--3--3--3-3--1-------------|-3--3--3--3--3-3--3-----3-3--3--3-3-|
|
| E  S  S  e  e    e  S  S  e  e   E  S  S  e  e    S  S  e    e  e
|--------------------------------|------------------------------------|
|---11-11-11-11---10-10-10--8----|---11-11-11-10---11-11-13---11-10---|
|---12-12-12-12---10-10-10-10-10-|---12-12-12-12---12-12-12---12-12---|
|---12-12-12-12---10-10-10-10-10-|---12-12-12-12---12-12-12---12-12---|
|--------------------------------|------------------------------------|
|--------------------------------|------------------------------------|


  Bb5           C5               G5
  H              H                W           +W
|------------------------------|-----------|---------*|
|------------------------------|-----------|---------*|
|------------------------------|-----------|---------*|
|-3--------------5-------------|-----------|---------*|
|-1--------------3-------------|--5--------|--(5)----*|
|------------------------------|--3--------|--(3)----*|
|
| E  S  S  e  e  S  S  e  e  e    W           +W
|---10-10-10-10-11-11-11-10-11-|-10--------|-(10)----*|
|---11-11-11-11-13-13-13-13-13-|-11--------|-(11)----*|
|---10-10-10-10-12-12-12-12-12-|-12--------|-(12)----*|
|------------------------------|-----------|---------*|
|------------------------------|-----------|---------*|
|------------------------------|-----------|---------*|



Duration Legend
---------------
W - whole; H - half; Q - quarter; E - 8th; S - 16th; T - 32nd; X - 64th; a - acciaccatura
+ - note tied to previous; . - note dotted; .. - note double dotted
Uncapitalized letters represent notes that are staccato (1/2 duration)
Irregular groupings are notated above the duration line
Duration letters will always appear directly above the note/fret number it represents the
duration for.  Duration letters with no fret number below them represent rests.  Multi-
bar rests are notated in the form Wxn, where n is the number of bars to rest for.  Low
melody durations appear below the staff

Tablature Legend
----------------
 h   - hammer-on
 p   - pull-off
 b   - bend
 pb  - pre-bend
 r   - bend release (if no number after the r, then release immediately)
 /\  - slide into or out of (from/to "nowhere")
 s   - legato slide
 S   - shift slide
<n> - natural harmonic
[n]  - artificial harmonic
n(n) - tapped harmonic
 ~   - vibrato
 tr  - trill
 T   - tap
 TP  - trem. picking
 PM  - palm muting
\n/  - tremolo bar dip; n = amount to dip
 \n  - tremolo bar down
 n/  - tremolo bar up
/n\  - tremolo bar inverted dip
 =   - hold bend; also acts as connecting device for hammers/pulls
 <> - volume swell (louder/softer)
 x   - on rhythm slash represents muted slash
 o   - on rhythm slash represents single note slash

Misc Legend
-----------
 |  - bar
||  - double bar
||o - repeat start
o|| - repeat end
*|  - double bar (ending)
 :  - bar (freetime)
 $  - Segno
 &  - Coda
Tempo markers - <E/E./Q/Q./H/H.> = BPM(8/16=s8/s16), where s8 = swing 8ths, s16 = swing 16ths

comments
We did not receive enough feedback on this tab! Please rate:
print report bad tab
1 2 3 4 5
I want to post or [tab]
guest
You may want to rate the tab now too:
select rating
Please do not post tabs as comments. Select "correction" instead!