Oops, an error
Loading. Please wait.

Beauty Of The Beast Bass Tab

ver1
ver1

Whole song

Interactive

More versions @911Tabs.com
1,637 views 1 this week
1 commentread comment
1 2 3 4 5
excellent!
x 1
Autoscroll
+/-
esc
set tempo
stop
Contributor
Difficulty
intermediate
Hey! There's an official Ultimate Guitar app which is ideal
for learning songs when you're away from computer. Get the app
WARNING: You are trying to view
                                    content from Ultimate-Guitar.com
                                    in an unauthorized application,
                                    which is prohibited.

                                    Please use an official Ultimate
                                    Guitar Tabs application for iPhone,
                                    iPad or Android to access legitimate
                                    chords, guitar, bass, and drum tabs
                                    from Ultimate-Guitar.com database.

                                    Type "ultimate guitar tabs" in Apple
                                    App Store's or Android Market's
                                    search to find the application.
TItle: Beauty Of The Beast
Artist: Nightwish
Album: Century Child
Composer: Tuomas Holopainen / Marco Hietala / Emppu Vuorinen
Tabbed by: FLBatista

"LONG LOST LOVE"


- VERSE 1:

G|---------------------------------------------------------------------|
D|---------------------------------------------------------------------|
A|---------3-5-----------------3-5----------3-----------3-5-----5------|
E|----------------------------------------------------------------1-3--|
B|-3--3----------3-3---3--3----------3-3--3---1-3--3--------3-3--------|


G|-------------------------------------------------------------------|
D|-------------------------------------------------------------------|
A|------------------------------3-5----------------3-5-----------3---|
E|-3--3--3--1--1-----------------------------------------------------|
B|----------------1--1--3--3--------3-3----3--3-----------3-3--3---1-|


G|------------------------------------------------|
D|------------------------------------------------|
A|---------3-5-------5-----------0-1-----0--------|
E|---------------------1-3--3--3------1-----3--0--|
B|-3--3----------3-3------------------------------|

- CHORUS:

G|-----------------------------------------------------------------------------------|
D|-----------------------------------------------------------------------------------|
A|------0-----------------3--3--------0---------------0-----------------3--3---------|
E|--------3-1---1-1-1--1-------1-3------3-1-0-----------3-1---1-1-1--3-------1-3-----|
B|-3--3----------------------------3----------1--3--3----------------------------3~~-|

- VERSE 2:

G|---------------------------------------------------------------------|
D|---------------------------------------------------------------------|
A|---------3-5-----------------3-5----------3-----------3-5-----5------|
E|----------------------------------------------------------------1-3--|
B|-3--3----------3-3---3--3----------3-3--3---1-3--3--------3-3--------|


G|----------------------------------------------------------------------|
D|----------------------------------------------------------------------|
A|-----------------------------3-5--------3-----------3-5-----------3---|
E|-3--3--3--1--1--------------------------------------------------------|
B|----------------1--1--3--3-------3-3--3---1-3--3-----------3-3--3---1-|


G|-------------------------------------------------|
D|-------------------------------------------------|
A|---------3-5-------5-----------0-1-----0---------|
E|---------------------1-3--3--3------1-----3--0---|
B|-3--3----------3-3-------------------------------|

PLAY: CHORUS

- INTERLUDE:

G|--------------------------------------------|X3
D|--------------------------------------------|
A|---------------------------------------3--3-|
E|-----------------------6--6--3--3-4--4------|
B|-3--3--3--3-3--3-3--3-----------------------|


G|-----------------------------------------------------------|
D|-----------------------------------------------------------|
A|----------------------------------------3--3-5~~-----------|
E|-----------------------6--6--3--3-4--4---------------------|
B|-3--3--3--3-3--3-3--3-------------------------------3(16X)-|

- CHORUS 3:

G|---------------------------------------------------|X3
D|---------------------------------------------------|
A|------2-0-------------0-----------------2--0-------|
E|-0--0-----3----3-3-3-----------3-5-0---------3-2---|
B|-------------------------3---3-------------------3-|


G|--------------------------------------|
D|--------------------------------------|
A|------2-0-------------0---------------|
E|-0--0-----3----3-3-3-----------3-5-0--|
B|-------------------------3---3--------|

"ONE MORE NIGHT TO LIVE"


- INTRO:

G|---------------------------------------------------------------|
D|--------------2--------------3--------------2------------------|
A|------------2--------------2--------------2--------------------|
E|-000----000-----000----000-----000----000-----000----1-110000--|
B|---------------------------------------------------------------|


G|----------------------------------------------------------------------------------|
D|----------------------------------------------------------------------------------|
A|---------------------------------------------------------111-333------------------|
E|-----------------555-111-333---------------------555-333--------------------------|
B|-3-333-333-333-33------------555-3-333-333-333-33----------------3-333-333-333-33-|


G|-----------------------------------------------------------------|
D|-----------------------------------------------------------------|
A|-555---------333---------------------111-333-333-1113--3---------|
E|-----555-111---------------------555---------------------5555--4-|
B|-----------------3-333-333-333-33--------------------------------|


G|----------------------------------------------------|
D|--------------------------------------------------2-|
A|----------------------------------------------3-5---|
E|-------------------------------------------55-------|
B|-5--5--5--5--5--5--5--5--5--5--5--5--5--5-----------|
   +  +  +  +  +  +  +  +  +  +  +  +  +  +

- VERSE 1:

G|-----------------------------------------------------------------------------|
D|-----------------------------------------------------------------------------|
A|---------------------------------333-3-3-333-333-----------------------------|
E|-555-5-5-555-555-555-5-555-5(5X)-----------------333-3-333-3(5X)-555-5-5-555-|
B|-----------------------------------------------------------------------------|


G|------------------------------------------------------|
D|------------------------------------------------------|
A|---------------------333-3-3--------------------------|
E|-333-111-1-111-1(5X)-----------------000-0-0000-0-1-3-|
B|-----------------------------333-333------------------|

- MAIN RIFF:

G|------------------------------------------------------------------|
D|------------------------------------------------------------------|
A|-----------------------------------------------------111-----333--|
E|-----------------555-111-333-555-----------------555-----111------|
B|-3-333-333-333-33----------------3-333-333-333-33-----------------|

- VERSE 2:

G|----------------------------------------------------------------------------|
D|----------------------------------------------------------------------------|
A|-------------------------------2-333-3-3-333-333----------------------------|
E|-555-5-5-555-555-555-5-555-5555-----------------333-3-333-3(5X)-555-5-5-555-|
B|----------------------------------------------------------------------------|


G|------------------------------------------------------|
D|------------------------------------------------------|
A|---------------------333-3-3--------------------------|
E|-333-111-1-111-1(5X)-----------------000-0-0000-0-1-3-|
B|-----------------------------333-333------------------|

- RIFF 1:

G|------------------------------------------------------------|
D|------------------------------------------------------------|
A|-------------------------------------1-1-3-3--------11--33--|
E|-5(12X)-1-1-3-3-5(12X)-11--33-------------------------------|
B|-------------------------------3(12X)--------3(20X)---------|

- VERSE 3:

G|---------------------------------------------------------------------|
D|---------------------------------------------------------------------|
A|---------------------------------------------0-000-3-----------------|
E|---------3--1-0-000-1-1-1(4X)0---------3---1-------------0-1-3-333-3-|
B|-3-333-3-----------------------3-333-3---------------3-33------------|


G|-----------------------------------------------------|
D|-----------------------------------------------------|
A|-3---1-0-000-1-1-11110---------3---1-0-000-1---------|
E|-----------------------3-333-3---------------3--1-0--|
B|-----------------------------------------------------|


G|----------------------------------------------------|
D|----------------------------------------------------|
A|----------------------------------------------------|
E|---------1--0----------3--1-----------3--3--1--3~~--|
B|-4-444-4------3-333-3-------4-444-44----------------|


G|----------------------------------------------------------------------------|
D|----------------------------------------------------------------------------|
A|--------------------------------------------------------3----------3--------|
E|---------1--0---------3--1-----------3--3--1--313--313----313--313-----1-3--|
B|-4-444-4------3-333-3------4-444-44----------------------------------4------|

- BRIDGE 1:

G|--------------------------------|
D|--------------------------------|
A|--------------------------------|
E|-1133----33-----33--1133----33--|
B|-------4------4-----------4-----|

- VERSE 4:

G|----------------------------------------------------------------|
D|---------2-1-----------2-1-----------5-4-----------5-4----------|
A|-------2-----3-------2-----3-------5-----6-------5-----6--------|
E|-0(24X)--------0(24X)--------3(24X)--------3(24X)--------0(48X)-|
B|----------------------------------------------------------------|


G|----------------------------------------------------------|
D|---2-1------------2-1-------------------------------------|
A|-2-----3--------2-----3-----------------------------------|
E|---------0(48X)---------0-00------------0-00--------------|
B|----------------------------3-331-113-33----3-331-113-33--|

- DURING THE SOLOS:

G|------------------------------------------------------------------------------------|
D|------------------------------------------------------------------------------------|
A|------------------------------------------------------------------------------------|
E|-0(12X)-0-1-0---0(8X)-0-5-5-4-4-5-5-----------------------------------3-3-2-2-3-3---|
B|--------------3---------------------6-3(6X)-4-3(5X)-4-3-1-3(6X)-4-3-3-------------4-|


G|----------------------------------------------------------------------|
D|----------------------------------------------------------------------|
A|----------------------------------------------------------------------|
E|-0(12X)-0-1-0---0(8X)-0-5-5-4-4-5-5-----------------------------------|
B|--------------3---------------------6-3(6X)-4-3-3(5X)-4-3-1-3(6X)-4-3-|


G|---------------------------------------------------------------------|
D|-----------------------------------------2-1-------------------------|
A|------------------------2-0------------2-----3--------2-0------------|
E|---3-3-2-2-3-3---0(24X)-----3-1-0(16X)---------0(24X)-----3-1-0(16X)-|
B|-3-------------4-----------------------------------------------------|


G|----------------------------|
D|---2-1----------------------|
A|-2-----3--------------------|
E|---------0-00---------------|
B|--------------3-33-1-11-333-|

- BRIDGE 2:

G|-------------------------------------------------------|
D|-------------2-------------3-------------2-------------|
A|-----------2-------------2-------------2---------------|
E|-000---000-----000---000-----000---000-----000---1--0--|
B|-------------------------------------------------------|

- VERSE 5:

G|-------------------------------------------------------------|
D|-------------------------------------------------------------|
A|---------------------------------------------0-000-3---------|
E|---------3--1-0-000-1-1-1(4X)0---------3---1-------------0-1-|
B|-3-333-3-----------------------3-333-3---------------3-33----|


G|----------------------------------------------|
D|----------------------------------------------|
A|-1-111-1-3--1-0-000-0-5--3--1-111-1-3-3-1-----|
E|----------------------------------------------|
B|------------------------------------------3~--|


G|--------------------------------------------------------------------------------------|
D|--------------------------------------------------------------------------------------|
A|-1-111-1-3--1-0-000-0-5--3--1-111-1-3-3-1-535--535--1--535--535-6-5-------------------|
E|--------------------------------------------------------------------5-6~~--5~~--------|
B|---------------------------------------------------------------------------------3~~--|

"CHRISTABEL"


- PART 1:

G|--------------------------------------------------------------|
D|--------------------------------------------------------------|
A|--------------------------------------------------------------|
E|--------------------------------------------------------------|
B|-3--3-3-333-333-3--3-3-333-333-3--3-3-333-333-3--3-3-333-3-33-|


G|--------------------------------------------------------------|
D|--------------------------------------------------------------|
A|--------------------------------------------------------------|
E|-------------------------------3--3-3-333-333-1--1-1-111-1-11-|
B|-3--3-3-333-333-3--3-3-333-333--------------------------------|

PART 2(3X):

G|-------------------------------------------------------------|
D|-------------------------------------------------------------|
A|-------------------------------------------------------------|
E|-0--0-0-000-000-0--0-0-000-000-0--0-0-000-000-0--0-0---------|
B|-----------------------------------------------------333-333-|


G|-------------------------------------------------------------|
D|-------------------------------------------------------------|
A|-------------------------------0--0-0-000-000----------------|
E|-0--0-0-000-000-0--0-0-000-000----------------3--3-3-333-333-|
B|-------------------------------------------------------------|

LEG:

~ : Let Ring
+ : Staccato
/ : Slide Up
\ : Slide Down
comments
We did not receive enough feedback on this tab! Please rate:
print report bad tab
1 2 3 4 5
1 comment total.
0 reply
DM48 wrote on September 3 2009, 01:44 pm

This is excellent. It's played on a 4 string bass, so there's no low C note in the song, but I personally think it's a difficult song to make out from the quality of the recording, so this is a great effort. :D

I want to post or [tab]
guest
You may want to rate the tab now too:
select rating
Please do not post tabs as comments. Select "correction" instead!