Oops, an error
Loading. Please wait.

Bless The Child Tab

ver2
ver2

Whole song

More versions @911Tabs.com
1,788 views 1 this week
no commentswrite comment
1 2 3 4 5
poor
x 1
Autoscroll
+/-
esc
set tempo
stop
Contributor
WARNING: You are trying to view
                                    content from Ultimate-Guitar.com
                                    in an unauthorized application,
                                    which is prohibited.

                                    Please use an official Ultimate
                                    Guitar Tabs application for iPhone,
                                    iPad or Android to access legitimate
                                    chords, guitar, bass, and drum tabs
                                    from Ultimate-Guitar.com database.

                                    Type "ultimate guitar tabs" in Apple
                                    App Store's or Android Market's
                                    search to find the application.
#----------------------------------PLEASE NOTE---------------------------------#
#This file is the author's own work and represents their interpretation of the #
#song. You may only use this file for private study, scholarship, or research. #
#------------------------------------------------------------------------------#

BLESS THE CHILD
As recorded by Nightwish

Transcribed by Gulli05
        



Gtr I (E A D G B E) - 'Strings L'
Gtr II (E A D G B E) - 'Strings M'
Gtr III (B E A D G B) - 'Guitar'

  Q=121
 4/4
  Gtr I
  S S S S S S S S S S S S S S S S   S S S S S S S S S S S S S S S S
|---------------------------------|----------------------------------|
|---------------------------------|----------------------------------|
|---------------------------------|----------------------------------|
|-2-2-2---2---2-2-2---2---2-2-2---|-2-2-2---2---2-2-2---2---2-2-2----|
|---------------------------------|----------------------------------|
|-0-0-0---0---0-0-0---0---0-0-0---|-0-0-0---0---0-0-0---0---0-0-0----|


  S S S S E S S E S S S S S S   S S S S E S S E S S S S S S
|-----------------------------|-----------------------------|
|-----------------------------|-----------------------------|
|-----------------------------|-----------------------------|
|-2-2-2-----2-----2---2-2-2---|-2-2-2-----2-----2---2-2-2---|
|-----------------------------|-----------------------------|
|-0-0-0-----0-----0---0-0-0---|-0-0-0-----0-----0---0-0-0---|


  S S S S S S S S S S S S S S S S   S S S S S S S S S S S S S S S S
|---------------------------------|---------------------------------|
|---------------------------------|---------------------------------|
|---------------------------------|---------------------------------|
|-2-2-2---2---2-2-2---2---2-2-2---|-2-2-2---2---2-2-2---2---2-2-2---|
|---------------------------------|---------------------------------|
|-0-0-0---0---0-0-0---0---0-0-0---|-0-0-0---0---0-0-0---0---0-0-0---|


  S S S S E S S E S S S S S S   S S S S E S S S S S S S S S S
|-----------------------------|-------------------------------|
|-----------------------------|-------------------------------|
|-----------------------------|-------------------------------|
|-2-2-2-----2-----2---2-2-2---|-2-2-2-----2-----2-2-----2-2---|
|-----------------------------|-------------------------------|
|-0-0-0-----0-----0---0-0-0---|-0-0-0-----0-----0-0-----0-0---|


  S S S S S S S S S S S S S S S S   S S S S S S S S S S S S S S S S
|-0-------------------------------|-0-------------------------------|
|---------------------------------|---------------------------------|
|---------------------------------|---------------------------------|
|---0-0---0---0-0-0---0---0-0-0---|---0-0---0---0-0-0---0---0-0-0---|
|---------------------------------|---------------------------------|
|---------------------------------|---------------------------------|


  S S S S S S S S S S S S S S S S   S S S S S S S S S S S S S S S S
|-0-------------------------------|-0-------------------------------|
|---------------------------------|---------------------------------|
|---------------------------------|---------------------------------|
|---0-0---0---0-0-0---0---0-0-0---|---0-0---0---0-0-0---0---0-0-0---|
|---------------------------------|---------------------------------|
|---------------------------------|---------------------------------|


  S S S S S S S S S S S S S S S S   S S S S S S S S S S S S S S S S
|-0-------------------------------|-0-------------------------------|
|---------------------------------|---------------------------------|
|---------------------------------|---------------------------------|
|---0-0---0---0-0-0---0---0-0-0---|---0-0---0---0-0-0---0---0-0-0---|
|---------------------------------|---------------------------------|
|---------------------------------|---------------------------------|


  S S S S S S S S S S S S S S S S   S S S S S S S S S S S S S S S S
|-0-------------------------------|-0-------------------------------|
|---------------------------------|---------------------------------|
|---------------------------------|---------------------------------|
|---0-0---0---0-0-0---0---0-0-0---|---0-0---0---0-0-0---0---0-0-0---|
|---------------------------------|---------------------------------|
|---------------------------------|---------------------------------|


   S S  S S   S  S S S   S  S S S S S S S     S  S S S S S S S S S S S S S S S
|-----------------------------------------|------------------------------------|
|-----------------------------------------|------------------------------------|
|-----------------------------------------|------------------------------------|
|--2-2--2-----2----2-2---2----2---2-2-2---|---2--2-2---2---2-2-2---2---2-2-2---|
|-----------------------------------------|------------------------------------|
|--0-0--0-----0----0-0---0----0---0-0-0---|---0--0-0---0---0-0-0---0---0-0-0---|
|
| Gtr III
|  S S  E    +Q         +H                   +W
|-----------------------------------------|------------------------------------|
|-----------------------------------------|------------------------------------|
|-----------------------------------------|------------------------------------|
|-19---19---(19)-------(19)---------------|-(19)-------------------------------|
|-19---19---(19)-------(19)---------------|-(19)-------------------------------|
|-17---17---(17)-------(17)---------------|-(17)-------------------------------|


    S  S S S E S S E S S S S S S     S  S S S E S S E S S S S S S
|--------------------------------|--------------------------------|
|--------------------------------|--------------------------------|
|--------------------------------|--------------------------------|
|---2--2-2-----2-----2---2-2-2---|---2--2-2-----2-----2---2-2-2---|
|--------------------------------|--------------------------------|
|---0--0-0-----0-----0---0-0-0---|---0--0-0-----0-----0---0-0-0---|
|
|  +W                               +W
|--------------------------------|--------------------------------|
|--------------------------------|--------------------------------|
|--------------------------------|--------------------------------|
|-(19)---------------------------|-(19)---------------------------|
|-(19)---------------------------|-(19)---------------------------|
|-(17)---------------------------|-(17)---------------------------|


   S S  S S   S  S S S   S  S S S S S S S     S  S S S S S S S S S S S S S S S
|-----------------------------------------|------------------------------------|
|-----------------------------------------|------------------------------------|
|-----------------------------------------|------------------------------------|
|--2-2--2-----2----2-2---2----2---2-2-2---|---2--2-2---2---2-2-2---2---2-2-2---|
|-----------------------------------------|------------------------------------|
|--0-0--0-----0----0-0---0----0---0-0-0---|---0--0-0---0---0-0-0---0---0-0-0---|
|
|  S S  E    +Q         +H                   +W
|-----------------------------------------|------------------------------------|
|-----------------------------------------|------------------------------------|
|-----------------------------------------|------------------------------------|
|-19---19---(19)-------(19)---------------|-(19)-------------------------------|
|-19---19---(19)-------(19)---------------|-(19)-------------------------------|
|-17---17---(17)-------(17)---------------|-(17)-------------------------------|


    S  S S S E S S E S S S S S S     S  S S S E S S S S S S S S S S
|--------------------------------|----------------------------------|
|--------------------------------|----------------------------------|
|--------------------------------|----------------------------------|
|---2--2-2-----2-----2---2-2-2---|---2--2-2-----2-----2-2-----2-2---|
|--------------------------------|----------------------------------|
|---0--0-0-----0-----0---0-0-0---|---0--0-0-----0-----0-0-----0-0---|
|
|  +W                               +W
|--------------------------------|----------------------------------|
|--------------------------------|----------------------------------|
|--------------------------------|----------------------------------|
|-(19)---------------------------|-(19)-----------------------------|
|-(19)---------------------------|-(19)-----------------------------|
|-(17)---------------------------|-(17)-----------------------------|


   S S  S S  S S S S   S  S S S S S S S     S  S S S S S S S S S S S S S S S
|--0------------------------------------|---0--------------------------------|
|---------------------------------------|------------------------------------|
|---------------------------------------|------------------------------------|
|----0--0----0---0-0---0----0---0-0-0---|------0-0---0---0-0-0---0---0-0-0---|
|---------------------------------------|------------------------------------|
|---------------------------------------|------------------------------------|
|
|  S S  S S  Q        +H                   +W
|---------------------------------------|------------------------------------|
|---------------------------------------|------------------------------------|
|---------------------------------------|------------------------------------|
|-17---17---17-------(17)---------------|-(17)-------------------------------|
|-17---17---17-------(17)---------------|-(17)-------------------------------|
|-15---15---15-------(15)---------------|-(15)-------------------------------|


  S S S S S S S S S S S S S S S S   S S S S S S S S S S S S S S S S
|-0-------------------------------|-0-------------------------------|
|---------------------------------|---------------------------------|
|---------------------------------|---------------------------------|
|---0-0---0---0-0-0---0---0-0-0---|---0-0---0---0-0-0---0---0-0-0---|
|---------------------------------|---------------------------------|
|---------------------------------|---------------------------------|


   S S  S S  S S S S   S  S S S S S S S     S  S S S S S S S S S S S S S S S
|--0------------------------------------|---0--------------------------------|
|---------------------------------------|------------------------------------|
|---------------------------------------|------------------------------------|
|----0--0----0---0-0---0----0---0-0-0---|------0-0---0---0-0-0---0---0-0-0---|
|---------------------------------------|------------------------------------|
|---------------------------------------|------------------------------------|
|
| Gtr III
|  S S  S S  Q        +H                   +W
|---------------------------------------|------------------------------------|
|---------------------------------------|------------------------------------|
|---------------------------------------|------------------------------------|
|-17---17---17-------(17)---------------|-(17)-------------------------------|
|-17---17---17-------(17)---------------|-(17)-------------------------------|
|-15---15---15-------(15)---------------|-(15)-------------------------------|


   S S  S S   S  S S S   S  S S S S S S S     S  S S S S S S S S S S S S S S S
|--0--------------------------------------|---0--------------------------------|
|-----------------------------------------|------------------------------------|
|-----------------------------------------|------------------------------------|
|----0--0-----0----0-0---0----0---0-0-0---|------0-0---0---0-0-0---0---0-0-0---|
|-----------------------------------------|------------------------------------|
|-----------------------------------------|------------------------------------|
|
|  S S  E    +Q         +H                   +W
|-----------------------------------------|------------------------------------|
|-----------------------------------------|------------------------------------|
|-----------------------------------------|------------------------------------|
|-17---17---(17)-------(17)---------------|-(17)-------------------------------|
|-17---17---(17)-------(17)---------------|-(17)-------------------------------|
|-15---15---(15)-------(15)---------------|-(15)-------------------------------|


  S S S S S S S S S S S S S S S S   S S S S S S S S S S S S S S S S
|-0-------------------------------|-0-------------------------------|
|---------------------------------|---------------------------------|
|---------------------------------|---------------------------------|
|---0-0---0---0-0-0---0---0-0-0---|---0-0---0---0-0-0---0---0-0-0---|
|---------------------------------|---------------------------------|
|---------------------------------|---------------------------------|


   S  S  S S  S S  S  S  S S  S S  S  S  S S
|--------------------------------------------|
|--------------------------------------------|
|--------------------------------------------|
|--2--2--2----2----2--2--2----2----2--2--2---|
|--------------------------------------------|
|--0--0--0----0----0--0--0----0----0--0--0---|
|
| Gtr II
|  S  S  S S  S S  S  S  S S  S S  S  S  S S
|--7--7--7----7----7--7-10---10---10-10-10---|
|--8--8--8----8----8--8-10---10---10-10-10---|
|--9--9--9----9----9--9-11---11---11-11-11---|
|--------------------------------------------|
|--------------------------------------------|
|--------------------------------------------|
|
| Gtr III
|  S  S  S S  S S  S  S  S S  S S  S  S  S S
|--------------------------------------------|
|--------------------------------------------|
|--------------------------------------------|
|-19-19-19---19---19-19-19---19---19-19-19---|
|-19-19-19---19---19-19-19---19---19-19-19---|
|-17-17-17---17---17-17-17---17---17-17-17---|


   S  S  S S  S S  S  S  S S  S S  S  S  S S
|--------------------------------------------|
|--------------------------------------------|
|--------------------------------------------|
|--2--2--2----2----2--2--2----2----2--2--2---|
|--------------------------------------------|
|--0--0--0----0----0--0--0----0----0--0--0---|
|
|  S  S  S S  S S  S  S  S S  S S  S  S  S S
|-10-10-10---10---10-10----------------------|
|-12-12-12---12---12-12-10---10---10-10-10---|
|-12-12-12---12---12-12-12---12---11-11-11---|
|-----------------------12---12---12-12-12---|
|--------------------------------------------|
|--------------------------------------------|
|
|  S  S  S S  S S  S  S  S S  S S  S  S  S S
|--------------------------------------------|
|--------------------------------------------|
|--------------------------------------------|
|-19-19-19---19---19-19-19---19---19-19-19---|
|-19-19-19---19---19-19-19---19---19-19-19---|
|-17-17-17---17---17-17-17---17---17-17-17---|


   S  S  S S E  S S E  S S  S  S  S S    S  S  S S E  S S E  S S  S  S  S S
|-------------------------------------|-------------------------------------|
|-------------------------------------|-------------------------------------|
|-------------------------------------|-------------------------------------|
|--2--2--2------2------2----2--2--2---|--2--2--2------2------2----2--2--2---|
|-------------------------------------|-------------------------------------|
|--0--0--0------0------0----0--0--0---|--0--0--0------0------0----0--0--0---|
|
|  S  S  S S E  S S E  S S  S  S  S S    S  S  S S E  S S E  S S  S  S  S S
|-------------------------------------|-------------------------------------|
|-12-12-12-----10-----10---10-10-10---|-12-12-12-----10-----10---10-10-10---|
|-12-12-12-----12-----12---11-11-11---|-12-12-12-----12-----12---11-11-11---|
|-14-14-14-----12-----12---12-12-12---|-14-14-14-----12-----12---12-12-12---|
|-------------------------------------|-------------------------------------|
|-------------------------------------|-------------------------------------|
|
|  S  S  S S E  S S E  S S  S  S  S S    S  S  S S E  S S E  S S  S  S  S S
|-------------------------------------|-------------------------------------|
|-------------------------------------|-------------------------------------|
|-------------------------------------|-------------------------------------|
|-19-19-19-----19-----19---19-19-19---|-19-19-19-----19-----19---19-19-19---|
|-19-19-19-----19-----19---19-19-19---|-19-19-19-----19-----19---19-19-19---|
|-17-17-17-----17-----17---17-17-17---|-17-17-17-----17-----17---17-17-17---|


   S  S  S S  S S  S  S  S S  S S  S  S  S S
|--------------------------------------------|
|--------------------------------------------|
|--------------------------------------------|
|--2--2--2----2----2--2--2----2----2--2--2---|
|--------------------------------------------|
|--0--0--0----0----0--0--0----0----0--0--0---|
|
|  S  S  S S  S S  S  S  S S  S S  S  S  S S
|-----------------------10---10---10-10-10---|
|-12-12-12---12---12-12-10---10---10-10-10---|
|-12-12-12---12---12-12-11---11---11-11-11---|
|-14-14-14---14---14-14----------------------|
|--------------------------------------------|
|--------------------------------------------|
|
|  S  S  S S  S S  S  S  S S  S S  S  S  S S
|--------------------------------------------|
|--------------------------------------------|
|--------------------------------------------|
|-19-19-19---19---19-19-19---19---19-19-19---|
|-19-19-19---19---19-19-19---19---19-19-19---|
|-17-17-17---17---17-17-17---17---17-17-17---|


   S  S  S S  S S  S  S  S S  S S  S  S  S S
|--------------------------------------------|
|--------------------------------------------|
|--------------------------------------------|
|--2--2--2----2----2--2--2----2----2--2--2---|
|--------------------------------------------|
|--0--0--0----0----0--0--0----0----0--0--0---|
|
|  S  S  S S  S S  S  S  S S  S S  S  S  S S
|--9--9--9----9----9--9----------------------|
|-10-10-10---10---10-10-10---10---10-10-10---|
|--9--9--9----9----9--9-11---11---11-11-11---|
|-----------------------12---12---12-12-12---|
|--------------------------------------------|
|--------------------------------------------|
|
|  S  S  S S  S S  S  S  S S  S S  S  S  S S
|--------------------------------------------|
|--------------------------------------------|
|--------------------------------------------|
|-19-19-19---19---19-19-19---19---19-19-19---|
|-19-19-19---19---19-19-19---19---19-19-19---|
|-17-17-17---17---17-17-17---17---17-17-17---|


   S  S  S S E  S S E  S S  S  S  S S    S  S  S S E  S S S S  S S  S  S  S S
|-------------------------------------|---------------------------------------|
|-------------------------------------|---------------------------------------|
|-------------------------------------|---------------------------------------|
|--2--2--2------2------2----2--2--2---|--2--2--2------2-----2--2-------2--2---|
|-------------------------------------|---------------------------------------|
|--0--0--0------0------0----0--0--0---|--0--0--0------0-----0--0-------0--0---|
|
|  S  S  S S E  S S E  S S  S  S  S S    S  S  S S E  S S E    S S  S  S  S S
|-------------------------------------|---------------------------------------|
|-12-12-12-----10-----10---10-10-10---|-12-12-12-----10-------10---10-10-10---|
|-12-12-12-----12-----12---11-11-11---|-12-12-12-----12-------12---11-11-11---|
|-14-14-14-----12-----12---12-12-12---|-14-14-14-----12-------12---12-12-12---|
|-------------------------------------|---------------------------------------|
|-------------------------------------|---------------------------------------|
|
|  S  S  S S E  S S E  S S  S  S  S S    S  S  S S E  S S E    S S  S  S  S S
|-------------------------------------|---------------------------------------|
|-------------------------------------|---------------------------------------|
|-------------------------------------|---------------------------------------|
|-19-19-19-----19-----19---19-19-19---|-19-19-19-----19-------19---19-19-19---|
|-19-19-19-----19-----19---19-19-19---|-19-19-19-----19-------19---19-19-19---|
|-17-17-17-----17-----17---17-17-17---|-17-17-17-----17-------17---17-17-17---|


   S  S  S S  S S  S  S  S S  S S  S  S  S S
|--0-----------------------------------------|
|--------------------------------------------|
|--------------------------------------------|
|-----0--0----0----0--0--0----0----0--0--0---|
|--------------------------------------------|
|--------------------------------------------|
|
|  S  S  S S  S S  S  S  S S  S S  S  S  S S
|------------------------8----8----8--8--8---|
|-10-10-10---10---10-10--8----8----8--8--8---|
|-10-10-10---10---10-10--9----9----9--9--9---|
|-12-12-12---12---12-12----------------------|
|--------------------------------------------|
|--------------------------------------------|
|
|  S  S  S S  S S  S  S  S S  S S  S  S  S S
|--------------------------------------------|
|--------------------------------------------|
|--------------------------------------------|
|-17-17-17---17---17-17-17---17---17-17-17---|
|-17-17-17---17---17-17-17---17---17-17-17---|
|-15-15-15---15---15-15-15---15---15-15-15---|


   S  S  S S  S S  S  S  S S  S S  S  S  S S
|--0-----------------------------------------|
|--------------------------------------------|
|--------------------------------------------|
|-----0--0----0----0--0--0----0----0--0--0---|
|--------------------------------------------|
|--------------------------------------------|
|
|  S  S  S S  S S  S  S  S S  S S  S  S  S S
|--8--8--8----8----8--8----------------------|
|-10-10-10---10---10-10--8----8----8--8--8---|
|-10-10-10---10---10-10-10---10----9--9--9---|
|-----------------------10---10---10-10-10---|
|--------------------------------------------|
|--------------------------------------------|
|
|  S  S  S S  S S  S  S  S S  S S  S  S  S S
|--------------------------------------------|
|--------------------------------------------|
|--------------------------------------------|
|-17-17-17---17---17-17-17---17---17-17-17---|
|-17-17-17---17---17-17-17---17---17-17-17---|
|-15-15-15---15---15-15-15---15---15-15-15---|


   S  S  S S  S S  S  S  S S  S S  S  S  S S
|--0-----------------------------------------|
|--------------------------------------------|
|--------------------------------------------|
|-----0--0----0----0--0--0----0----0--0--0---|
|--------------------------------------------|
|--------------------------------------------|
|
|  S  S  S S  S S  S  S  S S  S S  S  S  S S
|--------------------------------------------|
|-10-10-10---10----8--8--8----8----8--8--8---|
|-10-10-10---10---10-10-10---10----9--9--9---|
|-12-12-12---12---10-10-10---10---10-10-10---|
|--------------------------------------------|
|--------------------------------------------|
|
|  S  S  S S  S S  S  S  S S  S S  S  S  S S
|--------------------------------------------|
|--------------------------------------------|
|--------------------------------------------|
|-17-17-17---17---17-17-17---17---17-17-17---|
|-17-17-17---17---17-17-17---17---17-17-17---|
|-15-15-15---15---15-15-15---15---15-15-15---|


   S  S  S S  S S  S  S  S S  S S  S  S  S S
|--0-----------------------------------------|
|--------------------------------------------|
|--------------------------------------------|
|-----0--0----0----0--0--0----0----0--0--0---|
|--------------------------------------------|
|--------------------------------------------|
|
|  S  S  S S  S S  S  S  S S  S S  S  S  S S
|--------------------------------------------|
|-10-10-10---10----8--8--8----8----8--8--8---|
|-10-10-10---10---10-10-10---10----9--9--9---|
|-12-12-12---12---10-10-10---10---10-10-10---|
|--------------------------------------------|
|--------------------------------------------|
|
|  S  S  S S  S S  S  S  S S  S S  S  S  S S
|--------------------------------------------|
|--------------------------------------------|
|--------------------------------------------|
|-17-17-17---17---17-17-17---17---17-17-17---|
|-17-17-17---17---17-17-17---17---17-17-17---|
|-15-15-15---15---15-15-15---15---15-15-15---|


   S  S  S S  S S  S  S  S S  S S  S  S  S S
|--0-----------------------------------------|
|--------------------------------------------|
|--------------------------------------------|
|-----0--0----0----0--0--0----0----0--0--0---|
|--------------------------------------------|
|--------------------------------------------|
|
|  S  S  S S  S S  S  S  S S  S S  S  S  S S
|------------------------8----8----8--8--8---|
|-10-10-10---10---10-10--8----8----8--8--8---|
|-10-10-10---10---10-10--9----9----9--9--9---|
|-12-12-12---12---12-12----------------------|
|--------------------------------------------|
|--------------------------------------------|
|
|  S  S  S S  S S  S  S  S S  S S  S  S  S S
|--------------------------------------------|
|--------------------------------------------|
|--------------------------------------------|
|-17-17-17---17---17-17-17---17---17-17-17---|
|-17-17-17---17---17-17-17---17---17-17-17---|
|-15-15-15---15---15-15-15---15---15-15-15---|


   S  S  S S  S S  S  S  S S  S S  S  S  S S
|--0-----------------------------------------|
|--------------------------------------------|
|--------------------------------------------|
|-----0--0----0----0--0--0----0----0--0--0---|
|--------------------------------------------|
|--------------------------------------------|
|
|  S  S  S S  S S  S  S  S S  S S  S  S  S S
|--7--7--7----7----7--7----------------------|
|--8--8--8----8----8--8--8----8----8--8--8---|
|--7--7--7----7----7--7--9----9----9--9--9---|
|-----------------------10---10---10-10-10---|
|--------------------------------------------|
|--------------------------------------------|
|
|  S  S  S S  S S  S  S  S S  S S  S  S  S S
|--------------------------------------------|
|--------------------------------------------|
|--------------------------------------------|
|-17-17-17---17---17-17-17---17---17-17-17---|
|-17-17-17---17---17-17-17---17---17-17-17---|
|-15-15-15---15---15-15-15---15---15-15-15---|


   S  S  S S  S S  S  S  S S  S S  S  S  S S
|--0-----------------------------------------|
|--------------------------------------------|
|--------------------------------------------|
|-----0--0----0----0--0--0----0----0--0--0---|
|--------------------------------------------|
|--------------------------------------------|
|
|  S  S  S S  S S  S  S  S S  S S  S  S  S S
|--------------------------------------------|
|-10-10-10---10----8--8--8----8----8--8--8---|
|-10-10-10---10---10-10-10---10----9--9--9---|
|-12-12-12---12---10-10-10---10---10-10-10---|
|--------------------------------------------|
|--------------------------------------------|
|
|  S  S  S S  S S  S  S  S S  S S  S  S  S S
|--------------------------------------------|
|--------------------------------------------|
|--------------------------------------------|
|-17-17-17---17---17-17-17---17---17-17-17---|
|-17-17-17---17---17-17-17---17---17-17-17---|
|-15-15-15---15---15-15-15---15---15-15-15---|


   S  S  S S  S S  S  S  S S  S S  S  S  S S
|--0-----------------------------------------|
|--------------------------------------------|
|--------------------------------------------|
|-----0--0----0----0--0--0----0----0--0--0---|
|--------------------------------------------|
|--------------------------------------------|
|
|  S  S  S S  S S  S  S  S S  S S  S  S  S S
|--------------------------------------------|
|-10-10-10---10----8--8--8----8----8--8--8---|
|-10-10-10---10---10-10-10---10----9--9--9---|
|-12-12-12---12---10-10-10---10---10-10-10---|
|--------------------------------------------|
|--------------------------------------------|
|
|  S  S  S S  S S  S  S  S S  S S  S  S  S S
|--------------------------------------------|
|--------------------------------------------|
|--------------------------------------------|
|-17-17-17---17---17-17-17---17---17-17-17---|
|-17-17-17---17---17-17-17---17---17-17-17---|
|-15-15-15---15---15-15-15---15---15-15-15---|


  Gtr III
   W           H     H       S  S  S S  S S  S  S  S S  S S  S  S  S S
|-----------|-------------|---------------------------------------------|
|-----------|-------------|---------------------------------------------|
|-----------|-------------|---------------------------------------------|
|-17--------|-20----15----|-20-19-17---17---17-17-17---17---17-17-17----|
|-17--------|-20----15----|-20-19-17---17---17-17-17---17---17-17-17----|
|-15--------|-18----13----|-18-17-15---15---15-15-15---15---15-15-15----|


   S  S  S S  S S  S  S  S S  S S  S  S  S S    W           W
|--------------------------------------------|-----------|-------|
|--------------------------------------------|-----------|-------|
|--------------------------------------------|-----------|-------|
|-20-19-17---17---17-17-17---17---17-17-17---|-20--------|-22----|
|-20-19-17---17---17-17-17---17---17-17-17---|-20--------|-22----|
|-18-17-15---15---15-15-15---15---15-15-15---|-18--------|-20----|


   W           S S  S S  S S  S S  Q   Q     W           W
|-----------|-----------------------------|-----------|-------|
|-14--------|-14---14---14---14-----------|-----------|-------|
|-14--------|-14---14---14---14-----------|-----------|-------|
|--0--------|--0----0----0----0---20--15--|-17--------|-24----|
|-----------|---------------------20--15--|-17--------|-24----|
|-----------|---------------------18--13--|-15--------|-22----|


   W           H     H       W           W
|-----------|-------------|-----------|-------|
|-----------|-------------|-----------|-------|
|-----------|-------------|-----------|-------|
|-20--------|-15----22----|-17--------|-22----|
|-20--------|-15----22----|-17--------|-22----|
|-18--------|-13----20----|-15--------|-20----|


  Gtr I
   W            W                S  S  S S  S S  S  S  S S  S S  S  S  S S
|-----------|-----------------|--0------------------------------------------|
|-----------|-----------------|---------------------------------------------|
|-----------|-----------------|---------------------------------------------|
|-----------|-----------------|-----0--0----0----0--0--0----0----0--0--0----|
|-----------|-----------------|---------------------------------------------|
|-----------|-----------------|---------------------------------------------|
|
| Gtr II
|  W            W                S  S  S S  S S  S  S  S S  S S  S  S  S S
|-----------|-----------------|------------------------8----8----8--8--8----|
|-----------|-----------------|-10-10-10---10---10-10--8----8----8--8--8----|
|-----------|-----------------|-10-10-10---10---10-10--9----9----9--9--9----|
|-----------|-----------------|-12-12-12---12---12-12-----------------------|
|-----------|-----------------|---------------------------------------------|
|-----------|-----------------|---------------------------------------------|
|
| Gtr III
|  W           +H      Q   Q     S  S  S S  S S  S  S  S S  S S  S  S  S S
|-----------|-----------------|---------------------------------------------|
|-----------|-----------------|---------------------------------------------|
|-----------|-----------------|---------------------------------------------|
|-24--------|-(24)----20--19--|-17-17-17---17---17-17-17---17---17-17-17----|
|-24--------|-(24)----20--19--|-17-17-17---17---17-17-17---17---17-17-17----|
|-22--------|-(22)----18--17--|-15-15-15---15---15-15-15---15---15-15-15----|


   S  S  S S  S S  S  S  S S  S S  S  S  S S
|--0-----------------------------------------|
|--------------------------------------------|
|--------------------------------------------|
|-----0--0----0----0--0--0----0----0--0--0---|
|--------------------------------------------|
|--------------------------------------------|
|
|  S  S  S S  S S  S  S  S S  S S  S  S  S S
|--8--8--8----8----8--8----------------------|
|-10-10-10---10---10-10--8----8----8--8--8---|
|-10-10-10---10---10-10-10---10----9--9--9---|
|-----------------------10---10---10-10-10---|
|--------------------------------------------|
|--------------------------------------------|
|
|  S  S  S S  S S  S  S  S S  S S  S  S  S S
|--------------------------------------------|
|--------------------------------------------|
|--------------------------------------------|
|-17-17-17---17---17-17-17---17---17-17-17---|
|-17-17-17---17---17-17-17---17---17-17-17---|
|-15-15-15---15---15-15-15---15---15-15-15---|


   S  S  S S  S S  S  S  S S  S S  S  S  S S
|--0-----------------------------------------|
|--------------------------------------------|
|--------------------------------------------|
|-----0--0----0----0--0--0----0----0--0--0---|
|--------------------------------------------|
|--------------------------------------------|
|
|  S  S  S S  S S  S  S  S S  S S  S  S  S S
|--------------------------------------------|
|-10-10-10---10----8--8--8----8----8--8--8---|
|-10-10-10---10---10-10-10---10----9--9--9---|
|-12-12-12---12---10-10-10---10---10-10-10---|
|--------------------------------------------|
|--------------------------------------------|
|
|  S  S  S S  S S  S  S  S S  S S  S  S  S S
|--------------------------------------------|
|--------------------------------------------|
|--------------------------------------------|
|-17-17-17---17---17-17-17---17---17-17-17---|
|-17-17-17---17---17-17-17---17---17-17-17---|
|-15-15-15---15---15-15-15---15---15-15-15---|


   S  S  S S  S S  S  S  S S  S S  S  S  S S
|--0-----------------------------------------|
|--------------------------------------------|
|--------------------------------------------|
|-----0--0----0----0--0--0----0----0--0--0---|
|--------------------------------------------|
|--------------------------------------------|
|
|  S  S  S S  S S  S  S  S S  S S  S  S  S S
|--------------------------------------------|
|-10-10-10---10----8--8--8----8----8--8--8---|
|-10-10-10---10---10-10-10---10----9--9--9---|
|-12-12-12---12---10-10-10---10---10-10-10---|
|--------------------------------------------|
|--------------------------------------------|
|
|  S  S  S S  S S  S  S  S S  S S  S  S  S S
|--------------------------------------------|
|--------------------------------------------|
|--------------------------------------------|
|-17-17-17---17---17-17-17---17---17-17-17---|
|-17-17-17---17---17-17-17---17---17-17-17---|
|-15-15-15---15---15-15-15---15---15-15-15---|


   S  S  S S  S S  S  S  S S  S S  S  S  S S
|--0-----------------------------------------|
|--------------------------------------------|
|--------------------------------------------|
|-----0--0----0----0--0--0----0----0--0--0---|
|--------------------------------------------|
|--------------------------------------------|
|
|  S  S  S S  S S  S  S  S S  S S  S  S  S S
|------------------------8----8----8--8--8---|
|-10-10-10---10---10-10--8----8----8--8--8---|
|-10-10-10---10---10-10--9----9----9--9--9---|
|-12-12-12---12---12-12----------------------|
|--------------------------------------------|
|--------------------------------------------|
|
|  S  S  S S  S S  S  S  S S  S S  S  S  S S
|--------------------------------------------|
|--------------------------------------------|
|--------------------------------------------|
|-17-17-17---17---17-17-17---17---17-17-17---|
|-17-17-17---17---17-17-17---17---17-17-17---|
|-15-15-15---15---15-15-15---15---15-15-15---|


   S  S  S S  S S  S  S  S S  S S  S  S  S S
|--0-----------------------------------------|
|--------------------------------------------|
|--------------------------------------------|
|-----0--0----0----0--0--0----0----0--0--0---|
|--------------------------------------------|
|--------------------------------------------|
|
|  S  S  S S  S S  S  S  S S  S S  S  S  S S
|--7--7--7----7----7--7----------------------|
|--8--8--8----8----8--8--8----8----8--8--8---|
|--7--7--7----7----7--7--9----9----9--9--9---|
|-----------------------10---10---10-10-10---|
|--------------------------------------------|
|--------------------------------------------|
|
|  S  S  S S  S S  S  S  S S  S S  S  S  S S
|--------------------------------------------|
|--------------------------------------------|
|--------------------------------------------|
|-17-17-17---17---17-17-17---17---17-17-17---|
|-17-17-17---17---17-17-17---17---17-17-17---|
|-15-15-15---15---15-15-15---15---15-15-15---|


   S  S  S S  S S  S  S  S S  S S  S  S  S S
|--0-----------------------------------------|
|--------------------------------------------|
|--------------------------------------------|
|-----0--0----0----0--0--0----0----0--0--0---|
|--------------------------------------------|
|--------------------------------------------|
|
|  S  S  S S  S S  S  S  S S  S S  S  S  S S
|--------------------------------------------|
|-10-10-10---10----8--8--8----8----8--8--8---|
|-10-10-10---10---10-10-10---10----9--9--9---|
|-12-12-12---12---10-10-10---10---10-10-10---|
|--------------------------------------------|
|--------------------------------------------|
|
|  S  S  S S  S S  S  S  S S  S S  S  S  S S
|--------------------------------------------|
|--------------------------------------------|
|--------------------------------------------|
|-17-17-17---17---17-17-17---17---17-17-17---|
|-17-17-17---17---17-17-17---17---17-17-17---|
|-15-15-15---15---15-15-15---15---15-15-15---|


   S  S  S S  S S  S  S  S S  S S  S  S  S S    W           W
|--0-----------------------------------------|-----------|-------------|
|--------------------------------------------|-----------|-------------|
|--------------------------------------------|-----------|-------------|
|-----0--0----0----0--0--0----0----0--0--0---|-----------|-------------|
|--------------------------------------------|-----------|-------------|
|--------------------------------------------|-----------|-------------|
|
|  S  S  S S  S S  S  S  S S  S S  S  S  S S    W           W
|--------------------------------------------|-----------|-------------|
|-10-10-10---10----8--8--8----8----8--8--8---|-----------|-------------|
|-10-10-10---10---10-10-10---10----9--9--9---|-----------|-------------|
|-12-12-12---12---10-10-10---10---10-10-10---|-----------|-------------|
|--------------------------------------------|-----------|-------------|
|--------------------------------------------|-----------|-------------|
|
|  S  S  S S  S S  S  S  S S  S S  S  S  S S    W           H     H
|--------------------------------------------|-----------|-------------|
|--------------------------------------------|-----------|-------------|
|--------------------------------------------|-----------|-------------|
|-17-17-17---17---17-17-17---17---17-17-17---|-17--------|-20----15----|
|-17-17-17---17---17-17-17---17---17-17-17---|-17--------|-20----15----|
|-15-15-15---15---15-15-15---15---15-15-15---|-15--------|-18----13----|


  Gtr III
   S  S  S S  S S  S  S  E  S S  S  S  E
|----------------------------------------|
|----------------------------------------|
|-----------------------24------------24-|
|-20-19-17---17---17-17-24-17---17-17-24-|
|-20-19-17---17---17-17----17---17-17----|
|-18-17-15---15---15-15----15---15-15----|


   S  S  S S  S S  S  S  E  S S  S  S  E    W
|----------------------------------------|-------|
|----------------------------------------|-------|
|-----------------------24------------24-|-------|
|-20-19-17---17---17-17-24-17---17-17-24-|-20----|
|-20-19-17---17---17-17----17---17-17----|-20----|
|-18-17-15---15---15-15----15---15-15----|-18----|


   W           W           S S  S S  S S  S S  Q   Q     W
|-----------|-----------|-----------------------------|-------|
|-----------|-14--------|-14---14---14---14-----------|-------|
|-----------|-14--------|-14---14---14---14-----------|-------|
|-22--------|--0--------|--0----0----0----0---20--15--|-17----|
|-22--------|-----------|---------------------20--15--|-17----|
|-20--------|-----------|---------------------18--13--|-15----|


   W           W           H     H       W
|-----------|-----------|-------------|-------|
|-----------|-----------|-------------|-------|
|-----------|-----------|-------------|-------|
|-24--------|-20--------|-15----22----|-17----|
|-24--------|-20--------|-15----22----|-17----|
|-22--------|-18--------|-13----20----|-15----|


   W           W           +W            W
|-----------|-----------|-------------|-------|
|-----------|-----------|-------------|-------|
|-----------|-----------|-------------|-------|
|-22--------|-24--------|-(24)--------|-17----|
|-22--------|-24--------|-(24)--------|-17----|
|-20--------|-22--------|-(22)--------|-15----|


   W           W           H     H       W
|-----------|-----------|-------------|-------|
|-----------|-----------|-------------|-------|
|-----------|-----------|-------------|-------|
|-24--------|-20--------|-15----22----|-20----|
|-24--------|-20--------|-15----22----|-20----|
|-22--------|-18--------|-13----20----|-18----|


             3/4
  Gtr I
   W           S  S  S S  S S  S S  S S E   S S S S S S S S S S E
|-----------|-----------------------------|-----------------------|
|-----------|-----------------------------|-----------------------|
|-----------|--2--2--2----2----2----2-----|-2-2-2---2---2---2-----|
|-----------|-----------------------------|-----------------------|
|-----------|-----------------------------|-----------------------|
|-----------|--5--5--5----5----5----5-----|-5-5-5---5---5---5-----|
|
| Gtr II
|  W           S  S  S S  S S  S S  S S E   S S S S S S S S S S E
|-----------|--8--8--8----8----8----8-----|-7-7-7---7---7---7-----|
|-----------|-10-10-10---10---10---10-----|-8-8-8---8---8---8-----|
|-----------|--9--9--9----9----9----9-----|-7-7-7---7---7---7-----|
|-----------|-----------------------------|-----------------------|
|-----------|-----------------------------|-----------------------|
|-----------|-----------------------------|-----------------------|
|
| Gtr III
|  W           Q          Q         Q       W
|-----------|-----------------------------|-----------------------|
|-----------|-----------------------------|-----------------------|
|-----------|-----------------------------|-----------------------|
|-22--------|-24--------------------------|-----------------------|
|-22--------|-24--------------------------|-----------------------|
|-20--------|-22--------------------------|-----------------------|


   S  S  S S  S S  S S  S S E
|-----------------------------|
|-----------------------------|
|--2--2--2----2----2----2-----|
|-----------------------------|
|-----------------------------|
|--5--5--5----5----5----5-----|
|
|  S  S  S S  S S  S S  S S E
|-10-10-10---10---10---10-----|
|-10-10-10---10---10---10-----|
|-10-10-10---10---10---10-----|
|-----------------------------|
|-----------------------------|
|-----------------------------|
|
|  W
|-----------------------------|
|-----------------------------|
|-----------------------------|
|-----------------------------|
|-----------------------------|
|-----------------------------|


   S  S  S S  S S  S S S S S S    S  S  S S  S S  S S  S S E
|------------------------------|--0--0--0----0----0----0------|
|------------------------------|------------------------------|
|--2--2--2----2----2-----------|------------------------------|
|----------------------3---2---|------------------------------|
|------------------------------|------------------------------|
|--5--5--5----5----5---1---0---|------------------------------|
|
|  S  S  S S  S S  S S S S S S    S  S  S S  S S  S S  S S E
|--8--8--8----8----8-----------|-13-13-13---13---13---13------|
|-10-10-10---10---10---6---5---|-15-15-15---15---15---15------|
|--9--9--9----9----9-----------|-14-14-14---14---14---14------|
|------------------------------|------------------------------|
|------------------------------|------------------------------|
|------------------------------|------------------------------|
|
|  W                              S  S  S S  S S  S S  S S E
|------------------------------|------------------------------|
|------------------------------|------------------------------|
|------------------------------|------------------------------|
|------------------------------|-17-17-17---17---17---17------|
|------------------------------|-17-17-17---17---17---17------|
|------------------------------|-15-15-15---15---15---15------|


   S  S  S S  S S  S S  S S E    S  S  S S  S S  S S  S S E
|--0--0--0----0----0----0-----|--0--0--0----0----0----0-----|
|-----------------------------|-----------------------------|
|-----------------------------|-----------------------------|
|-----------------------------|-----------------------------|
|-----------------------------|-----------------------------|
|-----------------------------|-----------------------------|
|
|  S  S  S S  S S  S S  S S E    S  S  S S  S S  S S  S S E
|-12-12-12---12---12---12-----|-15-15-15---15---15---15-----|
|-13-13-13---13---13---13-----|-15-15-15---15---15---15-----|
|-12-12-12---12---12---12-----|-15-15-15---15---15---15-----|
|-----------------------------|-----------------------------|
|-----------------------------|-----------------------------|
|-----------------------------|-----------------------------|
|
|  S  S  S S  S S  S S  S S E    S  S  S S  S S  S S  S S E
|-----------------------------|-----------------------------|
|-----------------------------|-----------------------------|
|-----------------------------|-----------------------------|
|-17-17-17---17---17---17-----|-17-17-17---17---17---17-----|
|-17-17-17---17---17---17-----|-17-17-17---17---17---17-----|
|-15-15-15---15---15---15-----|-15-15-15---15---15---15-----|


 4/4
   S  S  S  S E  S  S  S  S E  Q
|--0--0--0--0----0--0--0--0----0--|
|---------------------------------|
|---------------------------------|
|---------------------------------|
|---------------------------------|
|---------------------------------|
|
|  S  S  S  S E  S  S  S  S E  Q
|-13-13-13-13---13-13-13-13---12--|
|-15-15-15-15---15-15-15-15---13--|
|-14-14-14-14---14-14-14-14---12--|
|---------------------------------|
|---------------------------------|
|---------------------------------|
|
|  S  S  S  S E  S  S  S  S E  Q
|---------------------------------|
|---------------------------------|
|---------------------------------|
|-17-17-17-17---17-17-17-17---15--|
|-17-17-17-17---17-17-17-17---15--|
|-15-15-15-15---15-15-15-15---13--|


 3/4
  Gtr III
   H.         H.         H.         H.         H.         H.
|----------|----------|----------|----------|----------|--------|
|----------|----------|----------|----------|----------|--------|
|----------|----------|----------|----------|----------|--------|
|-17-------|-20-------|-15-------|-17-------|-17-------|-20-----|
|-17-------|-18-------|-15-------|-17-------|-17-------|-18-----|
|-15-------|----------|-13-------|-15-------|-15-------|--------|


  Gtr II
   W          W          W            W
|----------|----------|------------|-------------|
|----------|----------|------------|-------------|
|----------|----------|------------|-------------|
|----------|----------|------------|-------------|
|----------|----------|------------|-------------|
|----------|----------|------------|-------------|
|
| Gtr III
|  H.         H.         H.           H     Q
|----------|----------|------------|-------------|
|----------|----------|------------|-------------|
|----------|----------|------------|-20----------|
|-15-------|-20-------|-22---------|-20----20----|
|-15-------|-20-------|-22---------|-------20----|
|-13-------|-18-------|-20---------|-------18----|


   W            E   E  +S  S  E  Q
|------------|-----17-(17)------20----|
|------------|---------------15-------|
|------------|-----14-(14)------17----|
|------------|---------------12-------|
|------------|------------------------|
|------------|------------------------|
|
|  H.           H.
|------------|------------------------|
|------------|------------------------|
|------------|------------------------|
|-22---------|-24---------------------|
|-20---------|-22---------------------|
|------------|------------------------|


  Gtr I
    W           W             W
|-----------|-------------|-------------|
|-----------|-------------|-------------|
|-----------|-------------|-------------|
|-----------|-------------|-------------|
|-----------|-------------|-------------|
|-----------|-------------|-------------|
|
| Gtr II
|  +H.         +H.           +H.
|-(20)------|-(20)--------|-(20)--------|
|-----------|-------------|-------------|
|-(17)------|-(17)--------|-(17)--------|
|-----------|-------------|-------------|
|-----------|-------------|-------------|
|-----------|-------------|-------------|
|
| Gtr III
|   H.          H      Q      H.
|-----------|-------------|-------------|
|-----------|-------------|-------------|
|-----------|--20---------|-------------|
|--22-------|--20-----20--|--22---------|
|--22-------|---------20--|--20---------|
|--20-------|---------18--|-------------|


   W             S  S  S S  S S  S S  S S  S  S
|-------------|---------------------------------|
|-------------|---------------------------------|
|-------------|---------------------------------|
|-------------|--5--5--5----5----5----5----5--5-|
|-------------|---------------------------------|
|-------------|--3--3--3----3----3----3----3--3-|
|
|  H     Q       S  S  E    Q         Q
|-22----------|-22------------------------------|
|-------18----|---------------------------------|
|-19----------|-19------------------------------|
|-------------|---------------------------------|
|-------------|---------------------------------|
|-------------|---------------------------------|
|
|  H     Q       S  S  S S  S S  S S  S S  S  S
|-------------|---------------------------------|
|-------22----|---------------------------------|
|-20----------|---------------------------------|
|-20----24----|-22-22-22---22---22---22---22-22-|
|-------------|-22-22-22---22---22---22---22-22-|
|-------22----|-20-20-20---20---20---20---20-20-|


   S  S  S S  S S  S S  S S  S  S    S  S  S S  S S  S S  S S  S  S
|---------------------------------|---------------------------------|
|---------------------------------|---------------------------------|
|---------------------------------|---------------------------------|
|--5--5--5----5----5----5----5--5-|--5--5--5----5----5----5----5--5-|
|---------------------------------|---------------------------------|
|--3--3--3----3----3----3----3--3-|--3--3--3----3----3----3----3--3-|
|
| Gtr III
|  S  S  S S  S S  S S  S S  S  S    S  S  S S  S S  S S  S S  S  S
|---------------------------------|---------------------------------|
|---------------------------------|---------------------------------|
|---------------------------------|---------------------------------|
|-22-22-22---22---22---22---22-22-|-22-22-22---22---22---22---22-22-|
|-22-22-22---22---22---22---22-22-|-22-22-22---22---22---22---22-22-|
|-20-20-20---20---20---20---20-20-|-20-20-20---20---20---20---20-20-|


   S  S  S S  S S  S S  S S  S  S
|----------------------------------|
|----------------------------------|
|----------------------------------|
|--5--5--5----5----5----5----5--5--|
|----------------------------------|
|--3--3--3----3----3----3----3--3--|
|
|  S  S  S S  S S  S S  S S  S  S
|----------------------------------|
|----------------------------------|
|----------------------------------|
|-22-22-22---22---22---22---22-22--|
|-22-22-22---22---22---22---22-22--|
|-20-20-20---20---20---20---20-20--|


   S  S  S  S  S S  S S  S S  S  S
|----------------------------------|
|----------------------------------|
|----------------------------------|
|--5--5--5-----5----5----5----5--5-|
|----------------------------------|
|--3--3--3-----3----3----3----3--3-|
|
| Gtr II
|  E     S  S  S S  S S  Q
|-------18-18-18---20---17---------|
|-------20-20-20---20---18---------|
|-------19-19-19---20---17---------|
|-------20-20-20---22---19---------|
|-------22-22-22---22---20---------|
|-------22-22-22---23---20---------|
|
| Gtr III
|  S  S  S  S  S S  S S  S S  S  S
|----------------------------------|
|----------------------------------|
|----------------------------------|
|-22-22-22----22---22---22---22-22-|
|-22-22-22----22---22---22---22-22-|
|-20-20-20----20---20---20---20-20-|


   S  S  S  S  S S  S S  S S  S  S    S  S  S  S  S S  S S  S S  S  S
|----------------------------------|-----------------------------------|
|----------------------------------|-----------------------------------|
|----------------------------------|-----------------------------------|
|--5--5--5-----5----5----5----5--5-|--5--5--5-----5----5----5----5--5--|
|----------------------------------|-----------------------------------|
|--3--3--3-----3----3----3----3--3-|--3--3--3-----3----3----3----3--3--|
|
|  E     S  S  S S  S S  S S  S  S    E     S  S  S S  S S  Q
|-------15-15-15---15---18---17----|-------18-18-18---20---17----------|
|-------16-16-16---16---18---18----|-------20-20-20---20---18----------|
|-------15-15-15---15---19---17----|-------19-19-19---20---17----------|
|-------17-17-17---17---20---19----|-------20-20-20---22---19----------|
|-------18-18-18---18---20---20----|-------22-22-22---22---20----------|
|-------18-18-18---18---22---20----|-------22-22-22---23---20----------|
|
|  S  S  S  S  S S  S S  S S  S  S    S  S  S  S  S S  S S  S S  S  S
|----------------------------------|-----------------------------------|
|----------------------------------|-----------------------------------|
|----------------------------------|-----------------------------------|
|-22-22-22----22---22---22---22-22-|-22-22-22----22---22---22---22-22--|
|-22-22-22----22---22---22---22-22-|-22-22-22----22---22---22---22-22--|
|-20-20-20----20---20---20---20-20-|-20-20-20----20---20---20---20-20--|


   S  S  S  S  S S  S S  S S  S  S
|----------------------------------|
|----------------------------------|
|----------------------------------|
|--5--5--5-----5----5----5----5--5-|
|----------------------------------|
|--3--3--3-----3----3----3----3--3-|
|
|  E     S  S  S S  S S  S S  S  S
|-----------------------18---17----|
|-------20-20-20---20---18---18----|
|-------20-20-20---20---19---17----|
|-------22-22-22---22---20---19----|
|-------18-18-18---18---20---20----|
|-------20-20-20---20---22---20----|
|
|  S  S  S  S  S S  S S  S S  S  S
|----------------------------------|
|----------------------------------|
|----------------------------------|
|-22-22-22----22---22---22---22-22-|
|-22-22-22----22---22---22---22-22-|
|-20-20-20----20---20---20---20-20-|


   S  S  S  S  S S  S S  S S  S  S    S  S  S  S  S S  S S  S S  S  S
|----------------------------------|-----------------------------------|
|----------------------------------|-----------------------------------|
|----------------------------------|-----------------------------------|
|--5--5--5-----5----5----5----5--5-|--5--5--5-----5----5----5----5--5--|
|----------------------------------|-----------------------------------|
|--3--3--3-----3----3----3----3--3-|--3--3--3-----3----3----3----3--3--|
|
|  E     S  S  S S  S S  Q            E     S  S  S S  S S  S S  S  S
|-------18-18-18---20---17---------|-------15-15-15---15---18---17-----|
|-------20-20-20---20---18---------|-------16-16-16---16---18---18-----|
|-------19-19-19---20---17---------|-------15-15-15---15---19---17-----|
|-------20-20-20---22---19---------|-------17-17-17---17---20---19-----|
|-------22-22-22---22---20---------|-------18-18-18---18---20---20-----|
|-------22-22-22---23---20---------|-------18-18-18---18---22---20-----|
|
|  S  S  S  S  S S  S S  S S  S  S    S  S  S  S  S S  S S  S S  S  S
|----------------------------------|-----------------------------------|
|----------------------------------|-----------------------------------|
|----------------------------------|-----------------------------------|
|-22-22-22----22---22---22---22-22-|-22-22-22----22---22---22---22-22--|
|-22-22-22----22---22---22---22-22-|-22-22-22----22---22---22---22-22--|
|-20-20-20----20---20---20---20-20-|-20-20-20----20---20---20---20-20--|


   S  S  S  S  S S  S S  S S  S  S    S  S  S  S  S S  S S  S S  S S
|----------------------------------|---------------------------------|
|----------------------------------|---------------------------------|
|----------------------------------|---------------------------------|
|--5--5--5-----5----5----5----5--5-|--5--5--5-----5----5----3----2---|
|----------------------------------|---------------------------------|
|--3--3--3-----3----3----3----3--3-|--3--3--3-----3----3----1----0---|
|
|  E     S  S  S S  S S  Q            E     S  S  S S  S S  S S  S S
|-------18-18-18---20---17---------|---------------------------------|
|-------20-20-20---20---18---------|-------20-20-20---20-------------|
|-------19-19-19---20---17---------|-------20-20-20---20---22---21---|
|-------20-20-20---22---19---------|-------22-22-22---22-------------|
|-------22-22-22---22---20---------|-------18-18-18---18---20--------|
|-------22-22-22---23---20---------|-------20-20-20---20--------24---|
|
|  S  S  S  S  S S  S S  S S  S  S    S  S  S  S  S S  S S  S S  S S
|----------------------------------|---------------------------------|
|----------------------------------|---------------------------------|
|----------------------------------|---------------------------------|
|-22-22-22----22---22---22---22-22-|-22-22-22----22---22---20---19---|
|-22-22-22----22---22---22---22-22-|-22-22-22----22---22---20---19---|
|-20-20-20----20---20---20---20-20-|-20-20-20----20---20---18---17---|


   S  S  S  S  S S  S S  S S  S  S
|--0--0--------0----0----0----0--0--|
|-----------------------------------|
|-----------------------------------|
|--------0--------------------------|
|-----------------------------------|
|-----------------------------------|
|
|  E     S  S  S S  S S  Q
|--------0-22-22----0---24----------|
|----------22-22--------------------|
|-----------------------------------|
|-----------------------------------|
|-----------------------------------|
|-----------------------------------|
|
|  S  S  S  S  S S  S S  S S  S  S
|-----------------------------------|
|-----------------------------------|
|-----------------------------------|
|-17-17-17-17-17---17---17---17-17--|
|-17-17-17-17-17---17---17---17-17--|
|-15-15-15-15-15---15---15---15-15--|


   S  S  S  S  S S  S S  S S  S  S
|--0--0--0-----0----0--------------|
|----------------------------------|
|----------------------------------|
|------------------------3----2--2-|
|----------------------------------|
|------------------------1----0--0-|
|
|  E     S  S  S S  S S  S S  S  S
|-------22-22-22---22----0---20----|
|-------23-23-23---23--------20----|
|-------22-22-22---22--------------|
|-------20-20-20---20--------------|
|-------20-20-20---20--------------|
|----------------------------------|
|
|  S  S  S  S  S S  S S  S S  S  S
|----------------------------------|
|----------------------------------|
|----------------------------------|
|-17-17-17-17-17---17---20---19-19-|
|-17-17-17-17-17---17---20---20-20-|
|-15-15-15-15-15---15---18---17-17-|


   S  S  S  S  S S  S S  S S  S  S    S  S  S  S  S S  S S  S S  S  S
|--0--0--------0----0----0----0--0-|-----------------------------------|
|----------------------------------|-----------------------------------|
|----------------------------------|-----------------------------------|
|--------0-------------------------|--5--5--5-----5----5----3----2--2--|
|----------------------------------|-----------------------------------|
|----------------------------------|--3--3--3-----3----3----1----0--0--|
|
|  E     S  S  S S  S S  Q            E     S  S  S S  S S  S S  S  S
|--------0-22-22----0---24---------|--------0--0--0----0----0---20-----|
|----------22-22-------------------|----------------------------20-----|
|----------------------------------|-----------------------------------|
|----------------------------------|-----------------------------------|
|----------------------------------|-----------------------------------|
|----------------------------------|-----------------------------------|
|
|  S  S  S  S  S S  S S  S S  S  S    S  S  S  S  S S  S S  S S  S  S
|----------------------------------|-----------------------------------|
|----------------------------------|-----------------------------------|
|----------------------------------|-----------------------------------|
|-17-17-17-17-17---17---17---17-17-|-22-22-22-22-22---22---20---19-19--|
|-17-17-17-17-17---17---17---17-17-|-22-22-22-22-22---22---20---20-20--|
|-15-15-15-15-15---15---15---15-15-|-20-20-20-20-20---20---18---17-17--|


   S  S  S  S  S S  S S  S S  S  S
|--0--0--------0----0----0----0--0-|
|----------------------------------|
|----------------------------------|
|--------0-------------------------|
|----------------------------------|
|----------------------------------|
|
|  E     S  S  S S  S S  Q
|--------0-22-22----0---24---------|
|----------22-22-------------------|
|----------------------------------|
|----------------------------------|
|----------------------------------|
|----------------------------------|
|
|  S  S  S  S  S S  S S  S S  S  S
|----------------------------------|
|----------------------------------|
|----------------------------------|
|-17-17-17-17-17---17---17---17-17-|
|-17-17-17-17-17---17---17---17-17-|
|-15-15-15-15-15---15---15---15-15-|


   S  S  S  S  S S  S S  S S  S  S    S  S  S  S  S S  S S  S S  S  S
|--0--0--0-----0----0--------------|--0--0--------0----0----0----0--0--|
|----------------------------------|-----------------------------------|
|----------------------------------|-----------------------------------|
|------------------------3----2--2-|--------0--------------------------|
|----------------------------------|-----------------------------------|
|------------------------1----0--0-|-----------------------------------|
|
|  E     S  S  S S  S S  S S  S  S    E     S  S  S S  S S  Q
|-------22-22-22---22----0---20----|--------0-22-22----0---24----------|
|-------23-23-23---23--------20----|----------22-22--------------------|
|-------22-22-22---22--------------|-----------------------------------|
|-------20-20-20---20--------------|-----------------------------------|
|-------20-20-20---20--------------|-----------------------------------|
|----------------------------------|-----------------------------------|
|
|  S  S  S  S  S S  S S  S S  S  S    S  S  S  S  S S  S S  S S  S  S
|----------------------------------|-----------------------------------|
|----------------------------------|-----------------------------------|
|----------------------------------|-----------------------------------|
|-17-17-17-17-17---17---20---19-19-|-17-17-17-17-17---17---17---17-17--|
|-17-17-17-17-17---17---20---20-20-|-17-17-17-17-17---17---17---17-17--|
|-15-15-15-15-15---15---18---17-17-|-15-15-15-15-15---15---15---15-15--|


   S  S  S  S  S S  S S  S S  S  S
|----------------------------------|
|----------------------------------|
|----------------------------------|
|--5--5--5-----5----5----3----2--2-|
|----------------------------------|
|--3--3--3-----3----3----1----0--0-|
|
|  E     S  S  S S  S S  S S  S  S
|--------0--0--0----0----0---20----|
|----------------------------20----|
|----------------------------------|
|----------------------------------|
|----------------------------------|
|----------------------------------|
|
|  S  S  S  S  S S  S S  S S  S  S
|----------------------------------|
|----------------------------------|
|----------------------------------|
|-22-22-22-22-22---22---20---19-19-|
|-22-22-22-22-22---22---20---20-20-|
|-20-20-20-20-20---20---18---17-17-|


 4/4
   S S  S  S  S S  S  S  S S  S  S  S S  S  S
|---------------------------------------------|
|---------------------------------------------|
|--2----2--2--2----2--2--2----2--2--2----2--2-|
|---------------------------------------------|
|---------------------------------------------|
|--5----5--5--5----5--5--5----5--
comments
We did not receive enough feedback on this tab! Please rate:
1 2 3 4 5
I want to post or [tab]
guest
You may want to rate the tab now too:
select rating
Please do not post tabs as comments. Select "correction" instead!