Oops, an error
Loading. Please wait.

Bye Bye Beautiful Bass Tab

4,578 views 19 this week
no commentswrite comment
1 2 3 4 5
excellent!
x 2
Autoscroll
+/-
esc
set tempo
stop
Contributor
Tuning
D A D G B E
WARNING: You are trying to view
                                    content from Ultimate-Guitar.com
                                    in an unauthorized application,
                                    which is prohibited.

                                    Please use an official Ultimate
                                    Guitar Tabs application for iPhone,
                                    iPad or Android to access legitimate
                                    chords, guitar, bass, and drum tabs
                                    from Ultimate-Guitar.com database.

                                    Type "ultimate guitar tabs" in Apple
                                    App Store's or Android Market's
                                    search to find the application.
Intro (no bass for intro but i tabbed it out anyways)
|----------------------------------------------------------------|
|----------------------------------------------------------------|
|----------------------------------------------------3(x7)-2(x7)-|
|---2(x6)--2--22232--2(x8)--2--2353-2(x8)--2--22000--------------|

Main Riff 0:15
G|--------------------------------------------------------------------|
D|--------------------------------------------------------------------|
A|--------------------------------------------------------------------|
D|-12\2-2-2-2-2-2-2-2-2-2-2-2-2-2-0-0-2-2-2-2-2-2-2-2-2-2-2-2-2-3-5-3-|

G|-----------------------------------------------------------------|
D|-----------------------------------------------------------------|
A|---------------------------------0-0-0-0-0-0-0-0-----------------|
D|-2-2-2-2-2-2-2-2-2-2-2-2-2-2-0-0-----------------3-3-3-3-5-5-5-5-|

Verse 0:30
|----------------------------------------------------------------------------------|
|----------------------------------------------------------------------------------|
|--------------------------------2(x8)-3(x8)--------------------------------3(x16)-|
|-2(x12)-0000-2(x12)-5555-0(x16)-------------2(x12)-0000-2(x12)-5555-0(x16)--------|

PreChorus
|-------------|
|-------------|
|-------------|
|-22-22-22-22-|

Chorus  0:59
G|---------------------------------|---------------------------------|
D|---------------------------------|---------------------------------|
A|---------------------------------|---------------------------------|
D|-5p2-2-2-2-2-2-2-2-2-2-2-2-2-2-2-|-5p2-0h2-2-2-2-2-2-2-2-2-2-2-2-2-|

G|---------------------------------|---------------------------------|
D|---------------------------------|---------------------------------|
A|---------------------------------|---------------------------------|
D|-5p2-0h2-2-2-2-2-2-2-2-2-2-2-2-2-|-4-4-4-4-4-4-4-4-4-4-4-2-0-0-0-0-|

G|---------------------------------|---------------------------------|
D|---------------------------------|---------------------------------|
A|---------------------------------|---------------------------------|
D|-5p2-0h2-2-2-2-2-2-2-2-2-2-2-2-2-|-5p2-0h2-2-2-2-2-2-2-2-2-2-2-2-2-|

G|---------------------------------|---------------------------------|
D|---------------------------------|---------------------------------|
A|---------------------------------|---------------------------------|
D|-5p4-4p2-2-2-2-2-2-2-2-2-2-2-2-2-|-0-0-0---0-0---0-0-0-0---0-0-0-0-|

G|---------------------------------|---------------------------------|
D|---------------------------------|---------------------------------|
A|---------------------------------|---------------------------------|
D|-3-2---3-2---3-2---3-2--555-555--|-3-2---3-2---3-2---3-2---000-0-0-|

Main Riff 1:32
G|-----------------------------------------------------------------|
D|-----------------------------------------------------------------|
A|-----------------------------------------------------------------|
D|-2-2-2-2-2-2-2-2-2-2-2-2-2-2-0-0-2-2-2-2-2-2-2-2-2-2-2-2-2-3-5-3-|

G|-----------------------------------------------------------------|
D|-----------------------------------------------------------------|
A|---------------------------------0-0-0-0-0-0-0-0---3-2---5-3-3-2-|
D|-2-2-2-2-2-2-2-2-2-2-2-2-2-2-0-0-----------------3-----3---------|

Verse 1:46
G|---------------------------------------------------------------------|
D|---------------------------------------------------------------------|
A|---------------------------------------------------------------------|
D|-0-0-2-2-2-2-2-2-2-2-2-2-2-2-2-0-0-0-2-2-2-2-2-2-2-2-2-2-2-2-5-5-5-5-|

G|-----------------------------------------------------------------|
D|-----------------------------------------------------------------|
A|---------------------------------2-2-2-2-2-2-2-2-3-3-3-3-3-3-3-3-|
D|-0-0-0-0-0-0-0-0-0-0-0-0-0-0-0-0---------------------------------|

G|-----------------------------------------------------------------|
D|-----------------------------------------------------------------|
A|-----------------------------------------------------------------|
D|-2-2-2-2-2-2-2-2-2-2-2-2-2-0-5-3-2-2-2-2-2-2-2-2-2-2-2-2-5-5-5-5-|

G|-----------------------------------------------------------------|
D|-----------------------------------------------------------------|
A|---------------------------------3-3-3-3-3-3-3-3-3-3-3-3-3-3-3-3-|
D|-0-0-0-0-0-0-0-0-0-0-0-0-0-0-0-0---------------------------------|

PreChorus
|--------|
|--------|
|--REST--|
|--------|

Chorus
G|---------------------------------|---------------------------------|
D|---------------------------------|---------------------------------|
A|---------------------------------|---------------------------------|
D|-5p2-2-2-2-2-2-2-2-2-2-2-2-2-2-2-|-5p2-0h2-2-2-2-2-2-2-2-2-2-2-2-2-|

G|---------------------------------|---------------------------------|
D|---------------------------------|---------------------------------|
A|---------------------------------|---------------------------------|
D|-5p2-0h2-2-2-2-2-2-2-2-2-2-2-2-2-|-4-4-4-4-4-4-4-4-4-4-4-2-0-0-0-0-|

G|---------------------------------|---------------------------------|
D|---------------------------------|---------------------------------|
A|---------------------------------|---------------------------------|
D|-5p2-0h2-2-2-2-2-2-2-2-2-2-2-2-2-|-5p2-0h2-2-2-2-2-2-2-2-2-2-2-2-2-|

G|---------------------------------|---------------------------------|
D|---------------------------------|---------------------------------|
A|---------------------------------|---------------------------------|
D|-5p4-4p2-2-2-2-2-2-2-2-2-2-2-2-2-|-0-0-0---0-0---0-0-0-0---0-0-0-0-|

G|---------------------------------|---------------------------------|
D|---------------------------------|---------------------------------|
A|---------------------------------|---------------------------------|
D|-3-2---3-2---3-2---3-2--555-555--|-3-2---3-2---3-2---3-2---0-0-0-0-|

G|---------------------------------|---------------------------------|
D|---------------------------------|---------------------------------|
A|---------------------------------|---------------------------------|
D|-3-2---3-2---3-2---3-2--5-5-5-5--|-3-2---3-2---3-2---3-2---0-0-0-0-|

G|---------------------------------|---------------------------------|
D|---------------------------------|---------------------------------|
A|---------------------------------|---------------------------------|
D|-3-2---3-2---3-2---3-2--3-3-2-2--|-3-2---3-2---3-2---3-2---5---3---|

3:01
G|---------------------------------|---------------------------------|
D|---------------------------------|---------------------------------|
A|---------------------------------|---------------------------------|
D|-0-0-0-0-0-0-0-0-0-0-0-0-0-0-0-0-|-0-0-0-0-0-0-0-0-0-0-0-0-5-6-5-3-|

G|---------------------------------|---------------------------------|
D|---------------------------------|---------------------------------|
A|---------------------------------|---------------------------------|
D|-0-0-0-0-0-0-0-0-0-0-0-0-0-0-0-0-|-0-0-0-0-0-0-0-0-0-0-0-0-5-6-5-3-|

G|-------------------------|
D|-------------------------|
A|-------------------------|
D|-3-2---3-2---3-2---3-2---|

*Break*

Chorus
G|---------------------------------|---------------------------------|
D|---------------------------------|---------------------------------|
A|---------------------------------|---------------------------------|
D|-5p2-2-2-2-2-2-2-2-2-2-2-2-2-2-2-|-5p2-0h2-2-2-2-2-2-2-2-2-2-2-2-2-|

G|---------------------------------|---------------------------------|
D|---------------------------------|---------------------------------|
A|---------------------------------|---------------------------------|
D|-5p2-0h2-2-2-2-2-2-2-2-2-2-2-2-2-|-4-4-4-4-4-4-4-4-4-4-4-2-0-0-0-0-|

G|---------------------------------|---------------------------------|
D|---------------------------------|---------------------------------|
A|---------------------------------|---------------------------------|
D|-5p2-0h2-2-2-2-2-2-2-2-2-2-2-2-2-|-5p2-0h2-2-2-2-2-2-2-2-2-2-2-2-2-|

G|---------------------------------|---------------------------------|
D|---------------------------------|---------------------------------|
A|---------------------------------|---------------------------------|
D|-5p4-4p2-2-2-2-2-2-2-2-2-2-2-2-2-|-0-0-0---0-0---0-0-0-0---0-0-0-0-|

G|---------------------------------|---------------------------------|
D|---------------------------------|---------------------------------|
A|---------------------------------|---------------------------------|
D|-3-2---3-2---3-2---3-2--555-555--|-3-2---3-2---3-2---3-2---0-0-0-0-|

G|---------------------------------|---------------------------------|
D|---------------------------------|---------------------------------|
A|---------------------------------|---------------------------------|
D|-3-2---3-2---3-2---3-2--555-555--|-3-2---3-2---3-2---3-2-----------|
Tabbed by: Dave Vucko
comments
We did not receive enough feedback on this tab! Please rate:
1 2 3 4 5
I want to post or [tab]
guest
You may want to rate the tab now too:
select rating
Please do not post tabs as comments. Select "correction" instead!