Oops, an error
Loading. Please wait.

Come Cover Me Tab

ver3
ver3

Whole song

More versions @911Tabs.com
1,085 views 1 this week
no commentswrite comment
1 2 3 4 5
please rate
Autoscroll
+/-
esc
set tempo
stop
Contributor
WARNING: You are trying to view
                                    content from Ultimate-Guitar.com
                                    in an unauthorized application,
                                    which is prohibited.

                                    Please use an official Ultimate
                                    Guitar Tabs application for iPhone,
                                    iPad or Android to access legitimate
                                    chords, guitar, bass, and drum tabs
                                    from Ultimate-Guitar.com database.

                                    Type "ultimate guitar tabs" in Apple
                                    App Store's or Android Market's
                                    search to find the application.
#----------------------------------PLEASE NOTE---------------------------------#
#This file is the author's own work and represents their interpretation of the #
#song. You may only use this file for private study, scholarship, or research. #
#------------------------------------------------------------------------------#

COME COVER ME
As recorded by Nightwish
(From the 2000 Album WISHMASTER)

Transcribed by hades
	

Words and Music by Nightwish
Arranged by hades

D5
x 5 7 x x x
	
Bb/D
x 5 8 x x x
	
C5
x 3 5 x x x
	
G5/D
x 5 5 x x x

Bb5
x 1 3 3 x x
	
C5(type 2)
x 3 5 5 x x
	
D5(type 2)
x 5 7 7 x x

Gtr I (E A D G B E) - 'synth1'
Gtr II (E A D G B E) - 'flute'
Gtr III (E A D G B E) - 'rythm'
Gtr IV (E A D G B E) - 'rythm2'
Gtr V (D A D G B E) - 'synth2'
Gtr VI (E A D G B E) - 'lead'

 Intro
  Q=150
  N.C.
 4/4
  Gtr I
   E   E  E  E  E  E  E  E    E   E  E  E  E  E  E  E
|--------22-------22----22-|--------22-------22----22-|
|-----22-------22----------|-----23-------23----------|
|-19--------19-------19----|-19--------19-------19----|
|--------------------------|--------------------------|
|--------------------------|--------------------------|
|--------------------------|--------------------------|
|
| Gtr V
|  H.                 Q       H.                 Q
|-17-----------------------|-18-----------------------|
|--------------------------|--------------------------|
|--------------------------|--------------------------|
|--------------------------|--------------------------|
|--------------------------|--------------------------|
|--------------------------|--------------------------|


   E   E  E  E  E  E  E  E    E   E  E  E  E  E  E  E
|--------20-------20----20-|--------22-------22----22-|
|-----20-------20----------|-----22-------22----------|
|-19--------19-------19----|-19--------19-------19----|
|--------------------------|--------------------------|
|--------------------------|--------------------------|
|--------------------------|--------------------------|
|
|  H.                 Q       H.                 Q
|-15-----------------------|-17-----------------------|
|--------------------------|--------------------------|
|--------------------------|--------------------------|
|--------------------------|--------------------------|
|--------------------------|--------------------------|
|--------------------------|--------------------------|


   E   E  E  E  E  E  E  E    E   E  E  E  E  E  E  E
|-----17-18----20----18-17-|--------22----20-------18-|
|-18--------18----18-------|-----20-------------20----|
|--------------------------|-21--------21----21-------|
|--------------------------|--------------------------|
|--------------------------|--------------------------|
|--------------------------|--------------------------|
|
|  H.                 Q       H.                 Q
|--------------------------|--------------------------|
|-18-----------------------|-17-----------------------|
|--------------------------|--------------------------|
|--------------------------|--------------------------|
|--------------------------|--------------------------|
|--------------------------|--------------------------|


   E  E  E  E  E  E  E  E     E   E  E  E  E  E  E  E
|-------22-------22----22-|---------22----------20----|
|----22-------22----------|------23----23----20----20-|
|-19-------19-------19----|--19-----------19----------|
|-------------------------|---------------------------|
|-------------------------|---------------------------|
|-------------------------|---------------------------|
|
|  W                         +H.                 Q
|-------------------------|---------------------------|
|-15----------------------|-(15)----------------------|
|-------------------------|---------------------------|
|-------------------------|---------------------------|
|-------------------------|---------------------------|
|-------------------------|---------------------------|


  D5                        Bb/D
   E  E  E  E  E  E  E  E    E   E  E  E  E  E  E  E
|-------22-------22----22-|--------22-------22----22-|
|----22-------22----------|-----23-------23----------|
|-19-------19-------19----|-19--------19-------19----|
|-------------------------|--------------------------|
|-------------------------|--------------------------|
|-------------------------|--------------------------|
|
| Gtr II
|  ~~
|  W                         H.                 E  E
|-17----------------------|-18-----------------18-17-|
|-------------------------|--------------------------|
|-------------------------|--------------------------|
|-------------------------|--------------------------|
|-------------------------|--------------------------|
|-------------------------|--------------------------|
|
| Gtr V
|  W                         W
|-17----------------------|-18-----------------------|
|-------------------------|--------------------------|
|-14----------------------|-15-----------------------|
|-------------------------|--------------------------|
|-12----------------------|-13-----------------------|
|--0----------------------|--0-----------------------|


  C5                        D5
   E  E  E  E  E  E  E  E    E   E  E  E   E   E  E  E
|-------20-------20----20-|--------22---------22----22-|
|----20-------20----------|-----22--------22-----------|
|-19-------19-------19----|-19--------19---------19----|
|-------------------------|----------------------------|
|-------------------------|----------------------------|
|-------------------------|----------------------------|
|
|  ~~~~~~~~~~~~~~~~~~~~~~~~~~~~~
|  H           H             H.                   E  E
|-15----------20----------|-17-------------------17-15-|
|-------------------------|----------------------------|
|-------------------------|----------------------------|
|-------------------------|----------------------------|
|-------------------------|----------------------------|
|-------------------------|----------------------------|
|
|  W                         H             H
|-15----------------------|-17-----------(17)----------|
|-------------------------|----------------------------|
|-17----------------------|-14-----------(14)----------|
|-10----------------------|-12------------14-----------|
|-------------------------|----------------------------|
|-10----------------------|-12-----------(12)----------|


  Bb5                               C
   E   E  E  E   E   E   E      E    E   E  E  E   E   E  E  E
|-----17-18-----20------18-----17-|--------22-----20--------18-|
|-18--------18------18------------|-----20---------------20----|
|---------------------------------|-21--------21------21-------|
|---------------------------------|----------------------------|
|---------------------------------|----------------------------|
|---------------------------------|----------------------------|
|
|  ~~~                               ~~~
|  H.                    S   S  E    H.                   Q
|-----------------------15h=16h17-|-15-------------------------|
|-18------------------------------|----------------------17----|
|---------------------------------|----------------------------|
|---------------------------------|----------------------------|
|---------------------------------|----------------------------|
|---------------------------------|----------------------------|
|
|  H             Q       Q           H             H
|-13------------12------10--------|-12-----------(12)----------|
|-11-----------(11)----(11)-------|-13-----------(13)----------|
|-10-------------9-------7--------|-12-------------------------|
|---------------------------------|---------------10-----------|
|---------------------------------|----------------------------|
|--8------------(8)-----(8)-------|-10-----------(10)----------|


  D5
   E  E  E  E   E   E  E  E     E   E  E  E  E  E  E  E
|-------22---------22----22-|---------22----------20----|
|----22--------22-----------|------23----23----20----20-|
|-19-------19---------19----|--19-----------19----------|
|---------------------------|---------------------------|
|---------------------------|---------------------------|
|---------------------------|---------------------------|
|
|        ~~~~~~~~~~~~~~~~~~~~~~~~~~
|  E  E  Q     +H              +W
|---------------------------|---------------------------|
|-18-17-15----(15)----------|-(15)----------------------|
|---------------------------|---------------------------|
|---------------------------|---------------------------|
|---------------------------|---------------------------|
|---------------------------|---------------------------|
|
|  W                           +W
|-10------------------------|-(10)----------------------|
|-10------------------------|-(10)----------------------|
|--7------------------------|--(7)----------------------|
|---------------------------|---------------------------|
|---------------------------|---------------------------|
|--0------------------------|--(0)----------------------|


  D5                        Bb/D
   E  E  E  E  E  E  E  E    E   E  E  E  E  E  E  E
|-------22-------22----22-|--------22-------22----22-|
|----22-------22----------|-----23-------23----------|
|-19-------19-------19----|-19--------19-------19----|
|-------------------------|--------------------------|
|-------------------------|--------------------------|
|-------------------------|--------------------------|
|
|  ~~
|  W                         H.                 E  E
|-17----------------------|-18-----------------18-17-|
|-18----------------------|-20-----------------20-18-|
|-------------------------|--------------------------|
|-------------------------|--------------------------|
|-------------------------|--------------------------|
|-------------------------|--------------------------|
|
|  W                         W
|-17----------------------|-18-----------------------|
|-------------------------|--------------------------|
|-14----------------------|-15-----------------------|
|-------------------------|--------------------------|
|-12----------------------|-13-----------------------|
|--0----------------------|--0-----------------------|


  C5                        D5
   E  E  E  E  E  E  E  E    E   E  E  E   E   E  E  E
|-------20-------20----20-|--------22---------22----22-|
|----20-------20----------|-----22--------22-----------|
|-19-------19-------19----|-19--------19---------19----|
|-------------------------|----------------------------|
|-------------------------|----------------------------|
|-------------------------|----------------------------|
|
|  ~~~~~~~~~~~~~~~~~~~~~~~~~~~~~
|  H           H             H.                   E  E
|-15----------20----------|-17-------------------10-12-|
|-17----------22----------|-18-------------------------|
|-------------------------|----------------------------|
|-------------------------|----------------------------|
|-------------------------|----------------------------|
|-------------------------|----------------------------|
|
|  W                         H             H
|-15----------------------|-17-----------(17)----------|
|-------------------------|----------------------------|
|-17----------------------|-14-----------(14)----------|
|-10----------------------|-12------------14-----------|
|-------------------------|----------------------------|
|-10----------------------|-12-----------(12)----------|


  Bb5                               C
   E  E   E    E    E   E   E   E    E   E  E  E   E   E  E  E
|----17--18--------20------18--17-|--------22-----20--------18-|
|-18----------18-------18---------|-----20---------------20----|
|---------------------------------|-21--------21------21-------|
|---------------------------------|----------------------------|
|---------------------------------|----------------------------|
|---------------------------------|----------------------------|
|
|                                    ~~~
|  Q      E    E    Q       Q        H.                   Q
|-13----(13)-(13)-(13)-----17-----|-15-------------------12----|
|--------15---17---18------18-----|-17-------------------13----|
|---------------------------------|----------------------------|
|---------------------------------|----------------------------|
|---------------------------------|----------------------------|
|---------------------------------|----------------------------|
|
|  H                Q       Q        H             H
|-13---------------12------10-----|-12-----------(12)----------|
|-11--------------(11)----(11)----|-13-----------(13)----------|
|-10----------------9-------7-----|-12-------------------------|
|---------------------------------|---------------10-----------|
|---------------------------------|----------------------------|
|--8---------------(8)-----(8)----|-10-----------(10)----------|


  D5
   E   E    E   E   E   E  E  E     E   E  E  E  E  E  E  E
|----------22----------22----22-|---------22----------20----|
|-----22-----------22-----------|------23----23----20----20-|
|-19-----------19---------19----|--19-----------19----------|
|-------------------------------|---------------------------|
|-------------------------------|---------------------------|
|-------------------------------|---------------------------|
|
|           ~~~~~~~~~~~~~~~~~~~~~~~~~~~
|  E   E    Q      +H              +H.                 Q
|-29--27---25-----(25)----------|-(25)----------------------|
|-15-(15)-(15)----(15)----------|-(15)----------------------|
|-------------------------------|---------------------------|
|-------------------------------|---------------------------|
|-------------------------------|---------------------------|
|-------------------------------|---------------------------|
|
|  W                               +W
|-10----------------------------|-(10)----------------------|
|-10----------------------------|-(10)----------------------|
|--7----------------------------|--(7)----------------------|
|-------------------------------|---------------------------|
|-------------------------------|---------------------------|
|--0----------------------------|--(0)----------------------|


 Pre-Verse
  D5   D     D5 D     D5 D    Bb/D   Bb/D  Bb/D  Bb/D5
  Gtrs III, IV
    E   E  E  E  E  E  E  E    E   E  E  E  E  E  E  E
    |   |  |  |  |  |  |  |    |   |  |  |  |  |  |  |
    /   o  /  /  o  /  /  o    /   x  /  x  /  x  /  /

  Gtr I
    E   E  E  E  E  E  E  E    E   E  E  E  E  E  E  E
|---------22-------22----22-|--------22-------22----22-|
|------22-------22----------|-----23-------23----------|
|--19--------19-------19----|-19--------19-------19----|
|---------------------------|--------------------------|
|---------------------------|--------------------------|
|---------------------------|--------------------------|
|
| Gtr V
|   W                          W
|--17-----------------------|-18-----------------------|
|---------------------------|--------------------------|
|--14-----------------------|-15-----------------------|
|---------------------------|--------------------------|
|--12-----------------------|-13-----------------------|
|---0-----------------------|--0-----------------------|
|
| Gtr VI
|   ~~~~                       ~~~
|   H.                 E  E    H.                 E  E
|---------------------------|--------------------------|
|-/10-----------------10s11-|-11-----------------11-10-|
|---------------------------|--------------------------|
|---------------------------|--------------------------|
|---------------------------|--------------------------|
|---------------------------|--------------------------|


  C5 C     C5 C         C5 D5           D5    D5      D5 G5/D
   E  E  E  E   E  E     E  E     E   E  E  E   E   E  E  E
   |  |  |  |   |  |     |  |     |   |  |  |   |   |  |  |
   /  o  /  /   o  /     /  /     /   x  /  x   /   x  /  /

   E  E  E  E   E  E     E  E     E   E  E  E   E   E  E  E
|-------20--------20-------20-|---------22---------22----22-|
|----20--------20-------------|------22--------22-----------|
|-19-------19-----------19----|--19--------19---------19----|
|-----------------------------|-----------------------------|
|-----------------------------|-----------------------------|
|-----------------------------|-----------------------------|
|
|  W                              H             H
|-15--------------------------|--17-----------(17)----------|
|-----------------------------|-----------------------------|
|-17--------------------------|--14-----------(14)----------|
|-10--------------------------|--12------------14-----------|
|-----------------------------|-----------------------------|
|-10--------------------------|--12-----------(12)----------|
|
|  H            Q     a  Q        H.                   E  E
|-----------------------------|-----------------------------|
|-------------/13----13h15----|-\10-------------------10--8-|
|-12--------------------------|-----------------------------|
|-----------------------------|-----------------------------|
|-----------------------------|-----------------------------|
|-----------------------------|-----------------------------|


  Bb5                       C5
   H.                    E   E    W
   |                     |   |    |
   /                     /   /    /

   E   E  E  E   E   E   E   E    E   E  E  E   E   E  E  E
|-----17-18-----20------18--17-|--------22-----20--------18-|
|-18--------18------18---------|-----20---------------20----|
|------------------------------|-21--------21------21-------|
|------------------------------|----------------------------|
|------------------------------|----------------------------|
|------------------------------|----------------------------|
|
|  H             Q       Q        H             H
|-13------------12------10-----|-12-----------(12)----------|
|-11-----------(11)----(11)----|-13-----------(13)----------|
|-10-------------9-------7-----|-12-------------------------|
|------------------------------|---------------10-----------|
|------------------------------|----------------------------|
|--8------------(8)-----(8)----|-10-----------(10)----------|
|
|  ~~~                            ~~~
|  H.                    Q        H.                   E  E
|------------------------------|----------------------------|
|----------------------/10-----|--8-------------------------|
|-10---------------------------|----------------------10--9-|
|------------------------------|----------------------------|
|------------------------------|----------------------------|
|------------------------------|----------------------------|


  C  D           C  D                        C    D      C  D      C  D      C  D
   S S  S S  S S  S S  S  S  S S  S S  S S     S  S  S S  S S  S S  S S  S S  S S  S S
   | |  | |  | |  | |  |  |  | |  | |  | |     |  |  | |  | |  | |  | |  | |  | |  | |
   o o  / /  / /  o o  /  /  / /  / /  / /     o  o  / /  o o  / /  o o  / /  o o  / /

   E    E    E    E    E     E    E    E       E     E    E    E    E    E    E    E
|-----------22--------------22--------22---|-------------22------------------20-----------|
|------22-------------22-------------------|--------23--------23--------20--------20------|
|-19-------------19--------------19--------|--19-------------------19---------------------|
|------------------------------------------|----------------------------------------------|
|------------------------------------------|----------------------------------------------|
|------------------------------------------|----------------------------------------------|
|
|  W                                          +W
|-10---------------------------------------|-(10)-----------------------------------------|
|-10---------------------------------------|-(10)-----------------------------------------|
|--7---------------------------------------|--(7)-----------------------------------------|
|------------------------------------------|----------------------------------------------|
|------------------------------------------|----------------------------------------------|
|--0---------------------------------------|--(0)-----------------------------------------|
|
|                      ~~~~~~~~~~~~~~~~~~~~~~~~~~~
|  E    E    Q        +H                      +H.                             Q
|------------------------------------------|----------------------------------------------|
|------------------------------------------|----------------------------------------------|
|-10----9----7--------(7)------------------|--(7)-----------------------------------------|
|------------------------------------------|----------------------------------------------|
|------------------------------------------|----------------------------------------------|
|------------------------------------------|----------------------------------------------|


  D5   D     D5 D     D5 D    Bb/D   Bb/D  Bb/D  Bb/D5
    E   E  E  E  E  E  E  E    E   E  E  E  E  E  E  E
    |   |  |  |  |  |  |  |    |   |  |  |  |  |  |  |
    /   o  /  /  o  /  /  o    /   x  /  x  /  x  /  /

    E   E  E  E  E  E  E  E    E   E  E  E  E  E  E  E
|---------22-------22----22-|--------22-------22----22-|
|------22-------22----------|-----23-------23----------|
|--19--------19-------19----|-19--------19-------19----|
|---------------------------|--------------------------|
|---------------------------|--------------------------|
|---------------------------|--------------------------|
|
|   W                          W
|--17-----------------------|-18-----------------------|
|---------------------------|--------------------------|
|--14-----------------------|-15-----------------------|
|---------------------------|--------------------------|
|--12-----------------------|-13-----------------------|
|---0-----------------------|--0-----------------------|
|
|   ~~~~                       ~~~
|   H.                 E  E    H.                 E  E
|---------------------------|--------------------------|
|-/10-----------------10s11-|-11-----------------11-10-|
|---------------------------|--------------------------|
|---------------------------|--------------------------|
|---------------------------|--------------------------|
|---------------------------|--------------------------|


  C5 C     C5 C         C5 D5           D5    D5      D5 G5/D
   E  E  E  E   E  E     E  E     E   E  E  E   E   E  E  E
   |  |  |  |   |  |     |  |     |   |  |  |   |   |  |  |
   /  o  /  /   o  /     /  /     /   x  /  x   /   x  /  /

   E  E  E  E   E  E     E  E     E   E  E  E   E   E  E  E
|-------20--------20-------20-|---------22---------22----22-|
|----20--------20-------------|------22--------22-----------|
|-19-------19-----------19----|--19--------19---------19----|
|-----------------------------|-----------------------------|
|-----------------------------|-----------------------------|
|-----------------------------|-----------------------------|
|
|  W                              H             H
|-15--------------------------|--17-----------(17)----------|
|-----------------------------|-----------------------------|
|-17--------------------------|--14-----------(14)----------|
|-10--------------------------|--12------------14-----------|
|-----------------------------|-----------------------------|
|-10--------------------------|--12-----------(12)----------|
|
|  H            Q     a  Q        H.                   E  E
|-----------------------------|-----------------------------|
|-------------/13----13h15----|-\10-------------------10-11-|
|-12--------------------------|-----------------------------|
|-----------------------------|-----------------------------|
|-----------------------------|-----------------------------|
|-----------------------------|-----------------------------|


  Bb5                        C5
    H.                    E   E    W
    |                     |   |    |
    /                     /   /    /

    E   E  E  E   E   E   E   E    E   E  E  E   E   E  E  E
|------17-18-----20------18--17-|--------22-----20--------18-|
|--18--------18------18---------|-----20---------------20----|
|-------------------------------|-21--------21------21-------|
|-------------------------------|----------------------------|
|-------------------------------|----------------------------|
|-------------------------------|----------------------------|
|
|   H             Q       Q        H             H
|--13------------12------10-----|-12-----------(12)----------|
|--11-----------(11)----(11)----|-13-----------(13)----------|
|--10-------------9-------7-----|-12-------------------------|
|-------------------------------|---------------10-----------|
|-------------------------------|----------------------------|
|---8------------(8)-----(8)----|-10-----------(10)----------|
|
|   H.                    E   E    H.                   E  E
|-------------------------------|----------------------------|
|-/13--------------------11--10-|----------------------------|
|-------------------------------|-12-------------------10--9-|
|-------------------------------|----------------------------|
|-------------------------------|----------------------------|
|-------------------------------|----------------------------|


  C  D           C  D                        C    D      C  D      C  D      C  D
   S S  S S  S S  S S  S  S  S S  S S  S S     S  S  S S  S S  S S  S S  S S  S S  S S
   | |  | |  | |  | |  |  |  | |  | |  | |     |  |  | |  | |  | |  | |  | |  | |  | |
   o o  / /  / /  o o  /  /  / /  / /  / /     o  o  / /  o o  / /  o o  / /  o o  / /

   E    E    E    E    E     E    E    E       E     E    E    E    E    E    E    E
|-----------22--------------22--------22---|-------------22------------------20-----------|
|------22-------------22-------------------|--------23--------23--------20--------20------|
|-19-------------19--------------19--------|--19-------------------19---------------------|
|------------------------------------------|----------------------------------------------|
|------------------------------------------|----------------------------------------------|
|------------------------------------------|----------------------------------------------|
|
|  W                                          +W
|-10---------------------------------------|-(10)-----------------------------------------|
|-10---------------------------------------|-(10)-----------------------------------------|
|--7---------------------------------------|--(7)-----------------------------------------|
|------------------------------------------|----------------------------------------------|
|------------------------------------------|----------------------------------------------|
|--0---------------------------------------|--(0)-----------------------------------------|
|
|                      ~~~~~~~~~~~~~~~~~~~~~~~~~~~
|  E    E    Q        +H                      +H.                             Q
|------------------------------------------|----------------------------------------------|
|------------------------------------------|----------------------------------------------|
|-10----9----7--------(7)------------------|--(7)-----------------------------------------|
|------------------------------------------|----------------------------------------------|
|------------------------------------------|----------------------------------------------|
|------------------------------------------|----------------------------------------------|


 Verse
  B5
  Gtrs I, V
  e  e  e e  e  e e  e   e  e  e e  e  e e  e
|----------------------|----------------------|
|------12------12---12-|------12------12---12-|
|---11------11---------|---12------12---------|
|-9-------9-------9----|-9-------9-------9----|
|----------------------|----------------------|
|----------------------|----------------------|
|
| Gtrs III, IV
| PM-------------------------------------------
| E  E  E E  E  E E  E   E  E  E E  E  E E  E
|----------------------|----------------------|
|----------------------|----------------------|
|----------------------|----------------------|
|-4--4----4--4--4----4-|-4--4----4--4--4----4-|
|-2--2----2--2--2----2-|-2--2----2--2--2----2-|
|----------------------|----------------------|


  e e  e e e  e e  e   e  e  e e  e  e e  e
|--------------------|----------------------|
|-----10-----10---10-|------12------12---12-|
|---9------9---------|---11------11---------|
|-9------9------9----|-9-------9-------9----|
|--------------------|----------------------|
|--------------------|----------------------|
|
|----------------------------------------|
| E E  E E E  E E  E   E  E  E E  E  E E  E
|--------------------|----------------------|
|--------------------|----------------------|
|--------------------|----------------------|
|-4-4----4-4--4----4-|-4--4----4--4--4----4-|
|-2-2----2-2--2----2-|-2--2----2--2--2----2-|
|--------------------|----------------------|


  D5                        E5
   e  e  e  e  e  e  e  e   e e  e e  e e e  e
|-------------------------|--------------------|
|-------------------------|-----12---10--------|
|----11-12----14----12-11-|---9-----------9-12-|
|-12-------12----12-------|-9------9----9------|
|-------------------------|--------------------|
|-------------------------|--------------------|
|
|  W                        W
|-------------------------|--------------------|
|-------------------------|--------------------|
|-------------------------|--------------------|
|--7----------------------|-2------------------|
|--5----------------------|-2------------------|
|-------------------------|-0------------------|


  B5
  e  e  e e  e  e e  e   e  e  e  e e e  e e
|----------------------|---------------------|
|------12------12---12-|------12--------10---|
|---11------11---------|---12----12---9----9-|
|-9-------9-------9----|-9----------9--------|
|----------------------|---------------------|
|----------------------|---------------------|
|
| PM---------------------------------------|
| E  E  E E  E  E E  E   E  E  E  E E E  E E
|----------------------|---------------------|
|----------------------|---------------------|
|----------------------|---------------------|
|-4--4----4--4--4----4-|-4--4-----4-4-4----4-|
|-2--2----2--2--2----2-|-2--2-----2-2-2----2-|
|----------------------|---------------------|


  E5
   e  e  e  e  e  e  e  e    e  e  e  e  e  e  e  e
|-------------------------|-------------------------|
|-------17-------17----17-|-------17-------17----17-|
|----16-------16----------|----17-------17----------|
|-14-------14-------14----|-14-------14-------14----|
|-------------------------|-------------------------|
|-------------------------|-------------------------|
|
|  PM------------------------------------------------
|  E  E  E  E  E  E  E  E    E  E  E  E  E  E  E  E
|-------------------------|-------------------------|
|-------------------------|-------------------------|
|-------------------------|-------------------------|
|-------------------------|-------------------------|
|--2--2-----2--2--2-----2-|--2--2-----2--2--2-----2-|
|--0--0-----0--0--0-----0-|--0--0-----0--0--0-----0-|


   e  e  e  e  e  e  e  e    e  e  e  e  e  e  e  e
|-------------------------|-------------------------|
|-------15-------15----15-|-------17-------17----17-|
|----14-------14----------|----16-------16----------|
|-14-------14-------14----|-14-------14-------14----|
|-------------------------|-------------------------|
|-------------------------|-------------------------|
|
|------------------------------------------------|
|  E  E  E  E  E  E  E  E    E  E  E  E  E  E  E  E
|-------------------------|-------------------------|
|-------------------------|-------------------------|
|-------------------------|-------------------------|
|-------------------------|-------------------------|
|--2--2-----2--2--2-----2-|--2--2-----2--2--2-----2-|
|--0--0-----0--0--0-----0-|--0--0-----0--0--0-----0-|


  G5                        A5
   e  e  e  e  e  e  e  e    e  e  e  e  e  e  e  e
|-------------------------|-------------------------|
|----12-13----15----13-12-|-------17----15-------13-|
|-12-------12----12-------|----14-------------14----|
|-------------------------|-14-------14----14-------|
|-------------------------|-------------------------|
|-------------------------|-------------------------|
|
|  W                         W
|-------------------------|-------------------------|
|-------------------------|-------------------------|
|-------------------------|-------------------------|
|--5----------------------|--7----------------------|
|--5----------------------|--7----------------------|
|--3----------------------|--5----------------------|


  E5
   e  e  e  e  e  e  e  e    e  e  e  e  e  e  e  e
|-------------------------|-------------------------|
|-------17-------17----17-|-------17----------15----|
|----16-------16----------|----17----17----14----14-|
|-14-------14-------14----|-14----------14----------|
|-------------------------|-------------------------|
|-------------------------|-------------------------|
|
|  PM--------------------------------------------|
|  E  E  E  E  E  E  E  E    E  E  E  E  E  E  E  E
|-------------------------|-------------------------|
|-------------------------|-------------------------|
|-------------------------|-------------------------|
|-------------------------|-------------------------|
|--2--2-----2--2--2-----2-|--2--2-----2--2--2-----2-|
|--0--0-----0--0--0-----0-|--0--0-----0--0--0-----0-|


 Pre-Chorus
  C5                  D5                  E5
  Gtrs III, IV
  H.           Q      H.           Q      W                  +W
|-------------------|-------------------|------------------|-------------------|
|-------------------|-------------------|------------------|-------------------|
|-5------------x\---|-7------------x\---|-9----------------|-(9)---------------|
|-5------------x\---|-7------------x\---|-9----------------|-(9)---------------|
|-3------------x\---|-5------------x\---|-7----------------|-(7)---------------|
|-------------------|-------------------|------------------|-------------------|
|
| Gtr VI
|    PM|   PM  PM-|      PM|   PM  PM-|     PM|   PM  PM      PM   PM  PM  PM|
| E  E E E E E E  E   E  E E E E E E  E   E E E E E E E  E    E  E E E E E E E
|-------------------|-------------------|------------------|-------------------|
|-5--0-0-7-0-8-0--0-|-5--0-0-7-0-8-0--0-|-5-0-0-7-0-8-0-10-|--0--8-0-7-0-8-0-0-|
|-------------------|-------------------|------------------|-------------------|
|-------------------|-------------------|------------------|-------------------|
|-------------------|-------------------|------------------|-------------------|
|-------------------|-------------------|------------------|-------------------|


  F5                   G5                   A5                       C5     G5
   H.           Q       H.           Q      W                 +H       Q    Q
|--------------------|--------------------|-----------------|------------------|
|--------------------|--------------------|-----------------|------------------|
|-10------------x\---|-12------------x\---|-----------------|----------5-------|
|-10------------x\---|-12------------x\---|-7---------------|-(7)------5----5--|
|--8------------x\---|-10------------x\---|-7---------------|-(7)------3----5--|
|--------------------|--------------------|-5---------------|-(5)-----------3--|
|
|                                                                      \5
|     PM|   PM  PM-|       PM|   PM  PM-|     PM|   PM  PM|
|  E  E E E E E E  E    E  E E E E E E  E   E E E E E E E E    H      +H
|--5--0-0-7-0-8-0--0-|--5--0-0-7-0-8-0--0-|-5-0-0-7-0-8-0-x-|-<5>----(<5>)-----|
|--------------------|--------------------|-----------------|------------------|
|--------------------|--------------------|-----------------|------------------|
|--------------------|--------------------|-----------------|------------------|
|--------------------|--------------------|-----------------|------------------|
|--------------------|--------------------|-----------------|------------------|


   Chorus
    D5 D   D5D   D5D   Bb/D Bb/DBb/DBbD5
    Gtrs III, IV
     E E E E E E E E    E E E E E E E E
     | | | | | | | |    | | | | | | | |
     / o / / o / / o    / x / x / x / /

    Gtr V
     W                  W
||--17---------------|-18---------------|
||o------------------|------------------|
||--14---------------|-15---------------|
||-------------------|------------------|
||o-12---------------|-13---------------|
||---0---------------|--0---------------|


  C5 C   C5C   C5D5       D5  D5     D5G5/D
   E E E E E E E E    E E E E   E  E E E
   | | | | | | | |    | | | |   |  | | |
   / o / / o / / /    / x / x   /  x / /

   W                  H         H
|-15---------------|-17-------(17)--------|
|------------------|----------------------|
|-17---------------|-14-------(14)--------|
|-10---------------|-12--------14---------|
|------------------|----------------------|
|-10---------------|-12-------(12)--------|


  Bb5                 C5              D5
   W                   W               W           +W
   |                   |               |            |
   /                   /               /            /

   H      Q     Q      H      H        W           +W
|-13-----12----10---|-12----(12)----|-10--------|-(10)-----||
|-11----(11)--(11)--|-13----(13)----|-10--------|-(10)----o||
|-10------9-----7---|-12------------|--7--------|--(7)-----||
|-------------------|--------10-----|-----------|----------||
|-------------------|---------------|-----------|---------o||
|--8-----(8)---(8)--|-10----(10)----|--0--------|--(0)-----||


 Interlude
  G5
  Gtrs III, IV
   W              +W              +W               +W
|--------------|---------------|----------------|------------------|
|--------------|---------------|----------------|------------------|
|--------------|---------------|----------------|------------------|
|--5-----------|--(5)----------|--(5)-----------|--(5)-------------|
|--5-----------|--(5)----------|--(5)-----------|--(5)-------------|
|--3-----------|--(3)----------|--(3)-----------|--(3)-------------|
|
| Gtr V
|  W               W               W                W
|--------------|---------------|----------------|------------------|
|-11-----------|-(11)----------|-(11)-----------|-(11)-------------|
|-12-----------|---8-----------|--10------------|--12--------------|
|--------------|---------------|----------------|------------------|
|-10-----------|---6-----------|---8------------|--10--------------|
|--------------|---------------|----------------|------------------|
|
| Gtr VI
|  ~~~             ~~~~
|                                                          |-3--|
|  H.      E E     H.      E E     H      Q  Q      Q   Q  Q Q  Q
|--------------|---------------|----------------|------------------|
|--------------|---------------|---------/6-----|--/8--------8-10--|
|--7-------7s8-|---8-------8-7-|---5---------5--|-------7----------|
|--------------|---------------|----------------|------------------|
|--------------|---------------|----------------|------------------|
|--------------|---------------|----------------|------------------|


  Eb5                    F5               G5
   W                      H.            E  E    W              +W
|----------------------|---------------------|--------------|-----------------|
|----------------------|---------------------|--------------|-----------------|
|--8-------------------|-10------------------|--------------|-----------------|
|--8-------------------|-10------------10s12-|-12-----------|-(12)------------|
|--6-------------------|--8-------------8s10-|-10-----------|-(10)------------|
|----------------------|---------------------|-10-----------|-(10)------------|
|
|  W                      W                     W              +W
|----------------------|---------------------|--------------|-----------------|
|--8-------------------|-(8)-----------------|-11-----------|-(11)------------|
|--8-------------------|-10------------------|-12-----------|-(12)------------|
|----------------------|---------------------|--------------|-----------------|
|--6-------------------|--8------------------|-10-----------|-(10)------------|
|----------------------|---------------------|--------------|-----------------|
|
|                                                                        \3
|  ~~~        ~~~                  PM|          ~~~
|  Q.    S S  Q.   S S    Q.   S S E E  E  E    H.      E E    +H.      +Q
|----------------------|---------------------|--------------|-----------------|
|-11----10-8-----------|---------------------|--------------|-----------------|
|------------10----8-7-|-------------7-------|--------------|-----------------|
|----------------------|-10----8-7-8----8--7-|--5-------3-0-|--(0)------(0)---|
|----------------------|---------------------|--------------|-----------------|
|----------------------|---------------------|--------------|-----------------|


   Bridge
    D5                Bb/D
    Gtr V
     E   E    E    E   q   Q
||--17------------17--18--18-----|
||o-----15---18------------------|
||--14------------14--15--15-----|
||------12---15------------------|
||o-17-(17)-(17)-(17)-17--17-----|
||-------------------------------|
|
|   Gtrs III, IV
|        PM------|
|    E   E    E    E   q   E  E
||-------------------------------|
||o------------------------------|
||---7---------------------------|
||---7-------------7---8---8p=7--|
||o--5---5----8--------5---5-(5)-|
||-------------------------------|


  D5                Bb/D         F5
   E   E    E    E   q   Q        H      H         H       H
|-17------------17--18--18-----|-20----(20)----|-(20)----(20)----|
|-----15---18------------------|-18----(18)----|-(18)----(18)----|
|-14------------14--15--15-----|-17------------|-----------------|
|-----12---15------------------|--------20-----|--19-------------|
|-17-(17)-(17)-(17)-17--17-----|---------------|----------20-----|
|------------------------------|---------------|-----------------|
|
|      PM------|
|  E   E    E    E   q   E  E     W               +W
|------------------------------|---------------|-----------------|
|------------------------------|---------------|-----------------|
|--7---------------------------|-10------------|-(10)------------|
|--7-------------7---8---8p=7--|-10------------|-(10)------------|
|--5---5----8--------5---5-(5)-|--8------------|--(8)------------|
|------------------------------|---------------|-----------------|


  D5                Bb/D         D5                Bb/D
   E   E    E    E   q   Q        E   E    E    E   q   Q
|-17------------17--18--18-----|-17------------17--18--18-----|
|-----15---18------------------|-----15---18------------------|
|-14------------14--15--15-----|-14------------14--15--15-----|
|-----12---15------------------|-----12---15------------------|
|-17-(17)-(17)-(17)-17--17-----|-17-(17)-(17)-(17)-17--17-----|
|------------------------------|------------------------------|
|
|      PM------|                      PM------|
|  E   E    E    E   q   E  E     E   E    E    E   q   E  E
|------------------------------|------------------------------|
|------------------------------|------------------------------|
|--7---------------------------|--7---------------------------|
|--7-------------7---8---8p=7--|--7-------------7---8---8p=7--|
|--5---5----8--------5---5-(5)-|--5---5----8--------5---5-(5)-|
|------------------------------|------------------------------|


  C5              G5
                               3/4
   H      H        W            W
|-12-----10-----|------------||------|
|-13----(13)----|-12--------o||------|
|-12----(12)----|-12---------||------|
|---------------|-12---------||------|
|---------------|-----------o||------|
|---------------|------------||------|
|
|  W               W            W
|---------------|------------||------|
|---------------|-----------o||------|
|--5------------|------------||------|
|--5------------|--5---------||------|
|--3------------|--5--------o||------|
|---------------|--3---------||------|


 Verse
  B5
 4/4
  Gtrs I, V
  e  e  e e  e  e e  e   e  e  e e  e  e e  e
|----------------------|----------------------|
|------12------12---12-|------12------12---12-|
|---11------11---------|---12------12---------|
|-9-------9-------9----|-9-------9-------9----|
|----------------------|----------------------|
|----------------------|----------------------|
|
| Gtrs III, IV
| PM-------------------------------------------
| E  E  E E  E  E E  E   E  E  E E  E  E E  E
|----------------------|----------------------|
|----------------------|----------------------|
|----------------------|----------------------|
|-4--4----4--4--4----4-|-4--4----4--4--4----4-|
|-2--2----2--2--2----2-|-2--2----2--2--2----2-|
|----------------------|----------------------|


  e e  e e e  e e  e   e  e  e e  e  e e  e
|--------------------|----------------------|
|-----10-----10---10-|------12------12---12-|
|---9------9---------|---11------11---------|
|-9------9------9----|-9-------9-------9----|
|--------------------|----------------------|
|--------------------|----------------------|
|
|----------------------------------------|
| E E  E E E  E E  E   E  E  E E  E  E E  E
|--------------------|----------------------|
|--------------------|----------------------|
|--------------------|----------------------|
|-4-4----4-4--4----4-|-4--4----4--4--4----4-|
|-2-2----2-2--2----2-|-2--2----2--2--2----2-|
|--------------------|----------------------|


  D5                        E5
   e  e  e  e  e  e  e  e   e e  e e  e e e  e
|-------------------------|--------------------|
|-------------------------|-----12---10--------|
|----11-12----14----12-11-|---9-----------9-12-|
|-12-------12----12-------|-9------9----9------|
|-------------------------|--------------------|
|-------------------------|--------------------|
|
|  W                        W
|-------------------------|--------------------|
|-------------------------|--------------------|
|-------------------------|--------------------|
|--7----------------------|-2------------------|
|--5----------------------|-2------------------|
|-------------------------|-0------------------|


  B5
  e  e  e e  e  e e  e   e  e  e  e e e  e e
|----------------------|---------------------|
|------12------12---12-|------12--------10---|
|---11------11---------|---12----12---9----9-|
|-9-------9-------9----|-9----------9--------|
|----------------------|---------------------|
|----------------------|---------------------|
|
| PM---------------------------------------|
| E  E  E E  E  E E  E   E  E  E  E E E  E E
|----------------------|---------------------|
|----------------------|---------------------|
|----------------------|---------------------|
|-4--4----4--4--4----4-|-4--4-----4-4-4----4-|
|-2--2----2--2--2----2-|-2--2-----2-2-2----2-|
|----------------------|---------------------|


  E5
   e  e  e  e  e  e  e  e    e  e  e  e  e  e  e  e
|-------------------------|-------------------------|
|-------17-------17----17-|-------17-------17----17-|
|----16-------16----------|----17-------17----------|
|-14-------14-------14----|-14-------14-------14----|
|-------------------------|-------------------------|
|-------------------------|-------------------------|
|
|  PM------------------------------------------------
|  E  E  E  E  E  E  E  E    E  E  E  E  E  E  E  E
|-------------------------|-------------------------|
|-------------------------|-------------------------|
|-------------------------|-------------------------|
|-------------------------|-------------------------|
|--2--2-----2--2--2-----2-|--2--2-----2--2--2-----2-|
|--0--0-----0--0--0-----0-|--0--0-----0--0--0-----0-|


   e  e  e  e  e  e  e  e    e  e  e  e  e  e  e  e
|-------------------------|-------------------------|
|-------15-------15----15-|-------17-------17----17-|
|----14-------14----------|----16-------16----------|
|-14-------14-------14----|-14-------14-------14----|
|-------------------------|-------------------------|
|-------------------------|-------------------------|
|
|------------------------------------------------|
|  E  E  E  E  E  E  E  E    E  E  E  E  E  E  E  E
|-------------------------|-------------------------|
|-------------------------|-------------------------|
|-------------------------|-------------------------|
|-------------------------|-------------------------|
|--2--2-----2--2--2-----2-|--2--2-----2--2--2-----2-|
|--0--0-----0--0--0-----0-|--0--0-----0--0--0-----0-|


  G5                        A5
   e  e  e  e  e  e  e  e    e  e  e  e  e  e  e  e
|-------------------------|-------------------------|
|----12-13----15----13-12-|-------17----15-------13-|
|-12-------12----12-------|----14-------------14----|
|-------------------------|-14-------14----14-------|
|-------------------------|-------------------------|
|-------------------------|-------------------------|
|
|  W                         W
|-------------------------|-------------------------|
|-------------------------|-------------------------|
|-------------------------|-------------------------|
|--5----------------------|--7----------------------|
|--5----------------------|--7----------------------|
|--3----------------------|--5----------------------|


  E5
   e  e  e  e  e  e  e  e    e  e  e  e  e  e  e  e
|-------------------------|-------------------------|
|-------17-------17----17-|-------17----------15----|
|----16-------16----------|----17----17----14----14-|
|-14-------14-------14----|-14----------14----------|
|-------------------------|-------------------------|
|-------------------------|-------------------------|
|
|  PM--------------------------------------------|
|  E  E  E  E  E  E  E  E    E  E  E  E  E  E  E  E
|-------------------------|-------------------------|
|-------------------------|-------------------------|
|-------------------------|-------------------------|
|-------------------------|-------------------------|
|--2--2-----2--2--2-----2-|--2--2-----2--2--2-----2-|
|--0--0-----0--0--0-----0-|--0--0-----0--0--0-----0-|


 Pre-Chorus
  C5                  D5                  E5
  Gtrs III, IV
  H.           Q      H.           Q      W                  +W
|-------------------|-------------------|------------------|-------------------|
|-------------------|-------------------|------------------|-------------------|
|-5------------x\---|-7------------x\---|-9----------------|-(9)---------------|
|-5------------x\---|-7------------x\---|-9----------------|-(9)---------------|
|-3------------x\---|-5------------x\---|-7----------------|-(7)---------------|
|-------------------|-------------------|------------------|-------------------|
|
| Gtr VI
|    PM|   PM  PM-|      PM|   PM  PM-|     PM|   PM  PM      PM   PM  PM  PM|
| E  E E E E E E  E   E  E E E E E E  E   E E E E E E E  E    E  E E E E E E E
|-------------------|-------------------|------------------|-------------------|
|-5--0-0-7-0-8-0--0-|-5--0-0-7-0-8-0--0-|-5-0-0-7-0-8-0-10-|--0--8-0-7-0-8-0-0-|
|-------------------|-------------------|------------------|-------------------|
|-------------------|-------------------|------------------|-------------------|
|-------------------|-------------------|------------------|-------------------|
|-------------------|-------------------|------------------|-------------------|


  F5                   G5
   H.           Q       H.           Q
|--------------------|--------------------|
|--------------------|--------------------|
|-10------------x\---|-12------------x\---|
|-10------------x\---|-12------------x\---|
|--8------------x\---|-10------------x\---|
|--------------------|--------------------|
|
|     PM|   PM  PM-|       PM|   PM  PM-|
|  E  E E E E E E  E    E  E E E E E E  E
|--5--0-0-7-0-8-0--0-|--5--0-0-7-0-8-0--0-|
|--------------------|--------------------|
|--------------------|--------------------|
|--------------------|--------------------|
|--------------------|--------------------|
|--------------------|--------------------|


  A5                        C5 G5
  W                  +H     Q    Q
|-----------------|-------------------|
|-----------------|-------------------|
|-----------------|---------5---------|
|-7---------------|--(7)----5----5----|
|-7---------------|--(7)----3----5----|
|-5---------------|--(5)---------3----|
|
|   PM|   PM  PM|     ~~~~
| E E E E E E E E     H.        +Q
|-5-0-0-7-0-8-0-x-|-------------------|
|-----------------|-/10--------(10)\--|
|-----------------|-------------------|
|-----------------|-------------------|
|-----------------|-------------------|
|-----------------|-------------------|


 Chorus
  D5                        Bb/D
  Gtr I
   e  e  e  e  e  e  e  e    e  e  e  e  e  e  e  e
|-------22-------22----22-|-------22-------22----22-|
|----22-------22----------|----23-------23----------|
|-19-------19-------19----|-19-------19-------19----|
|-------------------------|-------------------------|
|-------------------------|-------------------------|
|-------------------------|-------------------------|
|
| Gtr V
|  W                         W
|-17----------------------|-18----------------------|
|-------------------------|-------------------------|
|-14----------------------|-15----------------------|
|-------------------------|-------------------------|
|-12----------------------|-13----------------------|
|--0----------------------|--0----------------------|


  C5                        D5
   e  e  e  e  e  e  e  e    e  e  e  e   e   e  e  e
|-------20-------20----20-|-------22---------22----22-|
|----20-------20----------|----22--------22-----------|
|-19-------19-------19----|-19-------19---------19----|
|-------------------------|---------------------------|
|-------------------------|---------------------------|
|-------------------------|---------------------------|
|
|  W                         H            H
|-15----------------------|-17----------(17)----------|
|-------------------------|---------------------------|
|-17----------------------|-14----------(14)----------|
|-10----------------------|-12-----------14-----------|
|-------------------------|---------------------------|
|-10----------------------|-12----------(12)----------|


  Bb5                           C5
  Gtr I
   E  E  E  E   E   E   E   E    E  E  E  E   E   E  E  E
|----17-18-----20------18--17-|-------22-----20--------18-|
|-18-------18------18---------|----20---------------20----|
|-----------------------------|-21-------21------21-------|
|-----------------------------|---------------------------|
|-----------------------------|---------------------------|
|-----------------------------|---------------------------|
|
| Gtrs III, IV
|  W                             W
|-----------------------------|---------------------------|
|-----------------------------|---------------------------|
|-----------------------------|---------------------------|
|--3--------------------------|--5------------------------|
|--1--------------------------|--3------------------------|
|-----------------------------|---------------------------|
|
| Gtr V
|  H            Q       Q        H            H
|-13-----------12------10-----|-12----------(12)----------|
|-11----------(11)----(11)----|-13----------(13)----------|
|-10------------9-------7-----|-12------------------------|
|-----------------------------|--------------10-----------|
|-----------------------------|---------------------------|
|--8-----------(8)-----(8)----|-10----------(10)----------|


  D5
   E  E  E  E  E  E  E  E     E   E  E  E  E  E  E  E
|-------22-------22----22-|---------22----------20----|
|----22-------22----------|------23----23----20----20-|
|-19-------19-------19----|--19-----------19----------|
|-------------------------|---------------------------|
|-------------------------|---------------------------|
|-------------------------|---------------------------|
|
|     PM-------------------------------------------|
|  E  E  E  E  E  E  E  E     E   E  E  E  E  E  E  E
|-------------------------|---------------------------|
|-------------------------|---------------------------|
|-------------------------|---------------------------|
|--7----------------------|---------------------------|
|--5--5--5--5--5--5--5--5-|---5---5--5--5--5--5--5--5-|
|-------------------------|---------------------------|
|
|  W                         +W
|-10----------------------|-(10)----------------------|
|-10----------------------|-(10)----------------------|
|--7----------------------|--(7)----------------------|
|-------------------------|---------------------------|
|-------------------------|---------------------------|
|--0----------------------|--(0)----------------------|


 Out-Chorus
  G5                         Eb/G
   e  e  e  e  e  e  e  e     e   e  e  e  e  e  e  e
|-------15-------15----15--|--------15-------15----15--|
|----15-------15-----------|-----16-------16-----------|
|-12-------12-------12-----|-12--------12-------12-----|
|--------------------------|---------------------------|
|--------------------------|---------------------------|
|--------------------------|---------------------------|
|
|     PM|      PM|
|  E  E  E  E  E  E  E  E     E   E  E  E  E  E  E  E
|--------------------------|---------------------------|
|--------------------------|---------------------------|
|--------------------------|---------------------------|
|--------------------------|---------------------------|
|--5--------5--------5h=6--|--6------6-----6-----6p=5--|
|--3--3--3--3--3--3--3-(3)-|--3---x--3--x--3--x--3-(3)-|
|
|  W                          W
|-10-----------------------|-11------------------------|
|--------------------------|---------------------------|
|--7-----------------------|--8------------------------|
|--0-----------------------|---------------------------|
|--------------------------|--6------------------------|
|--5-----------------------|-(5)-----------------------|


  C5/G                       G5
   e  e  e  e  e  e  e  e     e  e  e  e   e   e  e  e
|-------13-------13----13--|-------15---------15----15--|
|----13-------13-----------|----15--------15------------|
|-12-------12-------12-----|-12-------12---------12-----|
|--------------------------|----------------------------|
|--------------------------|----------------------------|
|--------------------------|----------------------------|
|
|     PM|      PM|
|  E  E  E  E  E  E  E  E     E  E  E  E   E   E  E  E
|--------------------------|----------------------------|
|--------------------------|----------------------------|
|--------------------------|----------------------------|
|--------------------------|----------------------------|
|--3--------3--------3h=5--|--5-----5------5------5p=3--|
|--3--3--3--3--3--3--3-(3)-|--3--3--3--3---3---3--3-(3)-|
|
|  W                          H            H
|-13-----------------------|-10----------(10)-----------|
|--------------------------|----------------------------|
|-10-----------------------|--7-----------(7)-----------|
|--------------------------|--5------------7------------|
|--8-----------------------|----------------------------|
|--3-----------------------|--5-----------(5)-----------|


  Eb5                          F5
   e   e  e  e  e   e  e   e    e   e  e  e  e   e  e   e
|-----10-11----13-----11--10-|--------15----13---------11-|
|-11--------11-----11--------|-----13--------------13-----|
|----------------------------|-14--------14-----14--------|
|----------------------------|----------------------------|
|----------------------------|----------------------------|
|----------------------------|----------------------------|
|
|  H.                  Q        H.                  Q
|----------------------------|----------------------------|
|----------------------------|----------------------------|
|----------------------------|----------------------------|
|--8-------------------8\----|-10------------------10\----|
|--6-------------------6\----|--8-------------------8\----|
|----------------------------|----------------------------|
|
|  H            Q      Q        H            H
|--6------------5------3-----|--5-----------(5)-----------|
|--4-----------(4)----(4)----|--6-----------(6)-----------|
|--3------------2------0-----|--5-------------------------|
|----------------------------|---------------3------------|
|----------------------------|----------------------------|
|--1-----------(1)----(1)----|--3-----------(3)-----------|


  G5
   e  e  e  e  e  e  e  e     e   e  e  e  e  e  e  e
|----10-15-------15----15-|---------15----------13----|
|-------------15----------|------16----16----13----13-|
|-12----------------------|--12-----------12----------|
|----------17-------17----|---------------------------|
|-------------------------|---------------------------|
|-------------------------|---------------------------|
|
|  W                         +W
|-------------------------|---------------------------|
|-------------------------|---------------------------|
|-------------------------|---------------------------|
|-12----------------------|-(12)----------------------|
|-10----------------------|-(10)----------------------|
|-------------------------|---------------------------|
|
|  W                         +W
|--3----------------------|--(3)----------------------|
|--3----------------------|--(3)----------------------|
|--0----------------------|--(0)----------------------|
|--0----------------------|--(0)----------------------|
|-------------------------|---------------------------|
|-------------------------|---------------------------|


  G5                         Eb/G
   e  e  e  e  e  e  e  e     e   e  e  e  e  e  e  e
|-------15-------15----15--|--------15-------15----15--|
|----15-------15-----------|-----16-------16-----------|
|-12-------12-------12-----|-12--------12-------12-----|
|--------------------------|---------------------------|
|--------------------------|---------------------------|
|--------------------------|---------------------------|
|
|     PM|      PM|
|  E  E  E  E  E  E  E  E     E   E  E  E  E  E  E  E
|--------------------------|---------------------------|
|--------------------------|---------------------------|
|--------------------------|---------------------------|
|--------------------------|---------------------------|
|--5--------5--------5h=6--|--6------6-----6-----6p=5--|
|--3--3--3--3--3--3--3-(3)-|--3---x--3--x--3--x--3-(3)-|
|
|  W                          W
|-10-----------------------|-11------------------------|
|--------------------------|---------------------------|
|--7-----------------------|--8------------------------|
|--------------------------|---------------------------|
|--5-----------------------|--6------------------------|
|--5-----------------------|-(5)-----------------------|


  C5/G                       G5
   e  e  e  e  e  e  e  e     e  e  e  e   e   e  e  e
|-------13-------13----13--|-------15---------15----15--|
|----13-------13-----------|----15--------15------------|
|-12-------12-------12-----|-12-------12---------12-----|
|--------------------------|----------------------------|
|--------------------------|----------------------------|
|--------------------------|----------------------------|
|
|     PM|      PM|
|  E  E  E  E  E  E  E  E     E  E  E  E   E   E  E  E
|--------------------------|----------------------------|
|--------------------------|----------------------------|
|--------------------------|----------------------------|
|--------------------------|----------------------------|
|--3--------3--------3h=5--|--5-----5------5------5p=3--|
|--3--3--3--3--3--3--3-(3)-|--3--x--3--x---3---x--3-(3)-|
|
|  W                          H            H
|--8-----------------------|-10----------(10)-----------|
|--------------------------|----------------------------|
|-10-----------------------|--7-----------(7)-----------|
|--------------------------|--5------------7------------|
|--8-----------------------|----------------------------|
|--3-----------------------|--5-----------(5)-----------|


  H.=H
  Eb5                          F5
   e   e  e  e  e   e  e   e    e   e  e  e  e   e  e   e
|-----10-11----13-----11--10-|--------15----13---------11-|
|-11--------11-----11--------|-----13--------------13-----|
|----------------------------|-14--------14-----14--------|
|----------------------------|----------------------------|
|----------------------------|----------------------------|
|----------------------------|----------------------------|
|
|  H.                  Q        H.                  Q
|----------------------------|----------------------------|
|----------------------------|----------------------------|
|----------------------------|----------------------------|
|--8-------------------8\----|-10------------------10\----|
|--6-------------------6\----|--8-------------------8\----|
|----------------------------|----------------------------|
|
|  H            Q      Q        H            H
|--6------------5------3-----|--5-----------(5)-----------|
|--4-----------(4)----(4)----|--6-----------(6)-----------|
|--3------------2------0-----|--5-------------------------|
|----------------------------|---------------3------------|
|----------------------------|----------------------------|
|--1-----------(1)----(1)----|--3-----------(3)-----------|


  G5
   e  e  e  e  e  e  e  e    e   e  e  e  e  e  e  e
|----10-15-------15----15-|--------15----------13----|
|-------------15----------|-----16----16----13----13-|
|-12----------------------|-12-----------12----------|
|----------17-------17----|--------------------------|
|-------------------------|--------------------------|
|-------------------------|--------------------------|
|
|                            >
|  W                        +W
|-------------------------|--------------------------|
|-------------------------|--------------------------|
|-------------------------|--------------------------|
|--5----------------------|-(5)----------------------|
|--5----------------------|-(5)----------------------|
|--3----------------------|-(3)----------------------|
|
|  W                        +W
|--3----------------------|-(3)----------------------|
|--3----------------------|-(3)----------------------|
|--0----------------------|-(0)----------------------|
|--0----------------------|-(0)----------------------|
|-------------------------|--------------------------|
|-------------------------|--------------------------|


 Outro
  Q=120
  G5          Eb/G         F           G5
  Gtr V
   W           W            W           W
|-10--------|-11---------|-13--------|-10----|
|-----------|------------|-----------|-------|
|--7--------|--8---------|-10--------|--7----|
|--5--------|-(5)--------|-10--------|--5----|
|-----------|------------|-----------|-------|
|--5--------|-(5)--------|--3--------|--5----|


  H.=H
  Eb5        Fsus4        G5
                          >
  W           W           W          +W
|-6--------|-(6)--------|-3--------|-(3)----*|
|-4--------|--6---------|-3--------|-(3)----*|
|-3--------|--5---------|-0--------|-(0)----*|
|----------|------------|----------|--------*|
|----------|------------|----------|--------*|
|-1--------|--3---------|-5--------|-(5)----*|



Duration Legend
---------------
W - whole; H - half; Q - quarter; E - 8th; S - 16th; T - 32nd; X - 64th; a - acciaccatura
+ - note tied to previous; . - note dotted; .. - note double dotted
Uncapitalized letters represent notes that are staccato (1/2 duration)
Irregular groupings are notated above the duration line
Duration letters will always appear directly above the note/fret number it represents the
duration for.  Duration letters with no fret number below them represent rests.  Multi-
bar rests are notated in the form Wxn, where n is the number of bars to rest for.  Low
melody durations appear below the staff

Tablature Legend
----------------
 h   - hammer-on
 p   - pull-off
 b   - bend
 pb  - pre-bend
 r   - bend release (if no number after the r, then release immediately)
 /\  - slide into or out of (from/to "nowhere")
 s   - legato slide
 S   - shift slide
 - natural harmonic
[n]  - artificial harmonic
n(n) - tapped harmonic
 ~   - vibrato
 tr  - trill
 T   - tap
 TP  - trem. picking
 PM  - palm muting
\n/  - tremolo bar dip; n = amount to dip
 \n  - tremolo bar down
 n/  - tremolo bar up
/n\  - tremolo bar inverted dip
 =   - hold bend; also acts as connecting device for hammers/pulls
 <> - volume swell (louder/softer)
 x   - on rhythm slash represents muted slash
 o   - on rhythm slash represents single note slash

Misc Legend
-----------
 |  - bar
||  - double bar
||o - repeat start
o|| - repeat end
*|  - double bar (ending)
 :  - bar (freetime)
 $  - Segno
 &  - Coda
Tempo markers -  = BPM(8/16=s8/s16), where s8 = swing 8ths, s16 = swing 16ths

comments
We did not receive enough feedback on this tab! Please rate:
print report bad tab
1 2 3 4 5
I want to post or [tab]
guest
You may want to rate the tab now too:
select rating
Please do not post tabs as comments. Select "correction" instead!