Oops, an error
Loading. Please wait.

Crownless Tab

ver2
ver2

Whole song

Interactive

More versions @911Tabs.com
3,864 views 1 this week
no commentswrite comment
1 2 3 4 5
worth learning
x 2
Autoscroll
+/-
esc
set tempo
stop
Contributor
Hey! There's an official Ultimate Guitar app which is ideal
for learning songs when you're away from computer. Get the app
WARNING: You are trying to view
                                    content from Ultimate-Guitar.com
                                    in an unauthorized application,
                                    which is prohibited.

                                    Please use an official Ultimate
                                    Guitar Tabs application for iPhone,
                                    iPad or Android to access legitimate
                                    chords, guitar, bass, and drum tabs
                                    from Ultimate-Guitar.com database.

                                    Type "ultimate guitar tabs" in Apple
                                    App Store's or Android Market's
                                    search to find the application.
#----------------------------------PLEASE NOTE---------------------------------#
#This file is the author's own work and represents their interpretation of the #
#song. You may only use this file for private study, scholarship, or research. #
#------------------------------------------------------------------------------#

CROWNLESS
As recorded by Nightwish
(From the 2000 Album WISHMASTER)

Transcribed by Alexander Sobolev
        

Words and Music by T.Huolopainen

Gtr I (E A D G B E) - 'Main Guitar (Emppu)'
Gtr II (E A D G B E) - 'Guitar 2 (Emppu)'
Gtr III (E A D G B E) - 'Guitar 3 (Emppu)'

   Intro - Riff 1
    Moderate Metal Q=148
    F#m
   4/4
    Gtr I
    S S S E S S S S S S E S S S    S S S S  S S S S S S S E S S S
||------------------------------|---------------------------------|
||o-----------------------------|---------------------------------|
||------------------------------|---------------------------------|
||----------------7-------------|-12p7---7-11p7---7-9-7---7-9-7-6-|
||o-7h9-9-9-9-9-9---9-9-9-9-9-9-|------9--------9-------9---------|
||------------------------------|---------------------------------|


  D
  S S S E S S S E S S E S S   S S S E S S S E S S E S S
|---------------------------|----------------------------||
|---------------------------|---------------------------o||
|---------------------------|----------------------------||
|---------------7-----6-----|---------------7-----6------||
|-4h5-5-5-5-5-5---5-----5---|-4h5-5-5-5-5-5---5-----5---o||
|---------------------------|----------------------------||


   Intro - Riff 2
    F#m
    S S S E S S S S S S E S S S    S S S S  S S S S S S S E S S S
||------------------------------|---------------------------------|
||o-----------------------------|---------------------------------|
||------------------------------|---------------------------------|
||----------------7-------------|-12p7---7-11p7---7-9-7---7-9-7-6-|
||o-7h9-9-9-9-9-9---9-9-9-9-9-9-|------9--------9-------9---------|
||------------------------------|---------------------------------|


  D
  S S S E S S S E S S E S S   S S S E S S S E S S E S S
|---------------------------|----------------------------||
|---------------------------|---------------------------o||
|---------------------------|----------------------------||
|---------------7-----6-----|---------------7-----6------||
|-4h5-5-5-5-5-5---5-----5---|-4h5-5-5-5-5-5---5-----5---o||
|---------------------------|----------------------------||


  C#m
        T   T    T
  E S S S S S S  S S S S S S S S   S S S S S S S S S S S S S S S S
|--------------------------------|---------------------------------|
|--------------------------------|---------------------------------|
|--------------------------------|---------------------------------|
|--------------------7p4-6p4-----|-6-7-6-4---7-6-4-3h4p3-----------|
|-4-5p4-8p4-9p4-11p4---------8p5-|---------5-------------5-4-2-----|
|--------------------------------|-----------------------------5-4-|


   Verse 1
    F#5        E5   F#5    A5   C#/F   D5   A5 E/Ab
    W          H    H      H    H      H    Q  Q
||-----------|-----------|-----------|-------------||
||o----------|-----------|-----------|------------o||
||-----------|-----------|-----------|-------------||
||-----------|-----------|-----------|-7-----------||
||o-4--------|-2----4----|-7----4----|-5----7--7--o||
||--2--------|-0----2----|-5----1----|------5--4---||


   Riff 2 (Repeat)
    F#m
    S S S E S S S S S S E S S S    S S S S  S S S S S S S E S S S
||------------------------------|---------------------------------|
||o-----------------------------|---------------------------------|
||------------------------------|---------------------------------|
||----------------7-------------|-12p7---7-11p7---7-9-7---7-9-7-6-|
||o-7h9-9-9-9-9-9---9-9-9-9-9-9-|------9--------9-------9---------|
||------------------------------|---------------------------------|


  D
  S S S E S S S E S S E S S   S S S E S S S E S S E S S
|---------------------------|----------------------------||
|---------------------------|---------------------------o||
|---------------------------|----------------------------||
|---------------7-----6-----|---------------7-----6------||
|-4h5-5-5-5-5-5---5-----5---|-4h5-5-5-5-5-5---5-----5---o||
|---------------------------|----------------------------||


  C#m
        T   T    T
  E S S S S S S  S S S S S S S S   S S S S S S S S S S S S S S S S
|--------------------------------|---------------------------------|
|--------------------------------|---------------------------------|
|--------------------------------|---------------------------------|
|--------------------7p4-6p4-----|-6-7-6-4---7-6-4-3h4p3-----------|
|-4-5p4-8p4-9p4-11p4---------8p5-|---------5-------------5-4-2-----|
|--------------------------------|-----------------------------5-4-|


   Verse 2
    F#5        E5   F#5    A5   C#/F   D5   A5 E/Ab
    W          H    H      H    H      H    Q  Q
||-----------|-----------|-----------|-------------||
||o----------|-----------|-----------|------------o||
||-----------|-----------|-----------|-------------||
||-----------|-----------|-----------|-7-----------||
||o-4--------|-2----4----|-7----4----|-5----7--7--o||
||--2--------|-0----2----|-5----1----|------5--4---||


 Chorus
  D5                                     E5
  Gtr I
      PM------------------------------------------------------------------|
   S  S S S S S  S  S S S S S  S S S S   S S S S S S  S  S S S S S  S S S S
|--------------------------------------|-------------------------------------|
|--------------------------------------|-------------------------------------|
|--------------------------------------|-------------------------------------|
|--7-----------------------------------|-------------------------------------|
|--5--5-5-5-5-5--5--5-5-5-5-5--5-5-5-5-|-5h7-7-7-7-7--7--7-7-7-7-7--5-5-5-5--|
|--------------------------------------|-------------------------------------|
|
| Gtrs II, III
|  ~~~                                   ~~
|  Q.            Q.            Q         Q.           Q.            Q
|---------------12------------10-------|-7------------9------------10--------|
|-10------------14------------12-------|-9-----------10------------12--------|
|-11-----------------------------------|-------------------------------------|
|--------------------------------------|-------------------------------------|
|--------------------------------------|-------------------------------------|
|--------------------------------------|-------------------------------------|


  C#5                                   F#5
   PM----------------------|             PM----------------------------|
   S  S S S S S S  S S S S S  S S S S    S S S S S S S S S S S S S S S S
|-------------------------------------|-----------------------------------|
|-------------------------------------|-----------------------------------|
|-------------------------------------|-----------------------------------|
|-------------------------------------|-----------------------------------|
|--4--4-4-4-4-4-4--4-4-4-4-4--4h5p4---|-----------------------------------|
|-----------------------------------5-|--2-2-2-2-2-2-2-2-2-2-2-2-2-2-2-2--|
|
|  ~~~                                   ~~
|  Q.           Q.            Q          W
|-12------------7-------------9-------|-----------------------------------|
|-14------------9------------10-------|-10--------------------------------|
|-------------------------------------|-11--------------------------------|
|-------------------------------------|-----------------------------------|
|-------------------------------------|-----------------------------------|
|-------------------------------------|-----------------------------------|


  D5                                     A5
      PM-----------------------------|       PM-----------------------------|
   S  S S S S S  S  S S S S S  S S S S    S  S S S S S  S  S S S S S  S S S S
|--------------------------------------|---------------------------------------|
|--------------------------------------|---------------------------------------|
|--------------------------------------|---------------------------------------|
|--7-----------------------------------|---------------------------------------|
|--5--5-5-5-5-5--5--5-5-5-5-5--5-5-5-5-|--7------------------------------------|
|--------------------------------------|--5--5-5-5-5-5--5--5-5-5-5-5--5-5-5-5--|
|
|  Q.            Q.            Q          Q.            Q.            Q
|----------------9------------10-------|-12------------10-------------9--------|
|-10------------10------------12-------|-14------------12------------10--------|
|-11-----------------------------------|---------------------------------------|
|--------------------------------------|---------------------------------------|
|--------------------------------------|---------------------------------------|
|--------------------------------------|---------------------------------------|


  E5
   PM--------------------------------------------------------------|
   S S S S S S S S S S S S S S S S   S S S S S S S S S S S S S S S S
|----------------------------------|----------------------------------|
|----------------------------------|----------------------------------|
|----------------------------------|----------------------------------|
|----------------------------------|----------------------------------|
|--7-7-7-7-7-7-7-7-7-7-7-7-7-7-7-7-|-7-7-7-7-7-7-7-7-7-7-7-7-7-7-7-7--|
|----------------------------------|----------------------------------|
|
|  ~~~~~~~~~~~~~~~~~~~~~~~~~~~~~~~~~~~~
|  W                                 W
|--9-------------------------------|-7--------------------------------|
|-10-------------------------------|-9--------------------------------|
|----------------------------------|----------------------------------|
|----------------------------------|----------------------------------|
|----------------------------------|----------------------------------|
|----------------------------------|----------------------------------|


  D5                E5               C#5                   F#5
   W                W                 H.         S S S S    W
|-----------------|----------------|---------------------|-------|
|-----------------|----------------|---------------------|-------|
|-----------------|----------------|---------------------|-------|
|--7--------------|-9--------------|--6------------------|-------|
|--5--------------|-7--------------|--4----------4h5p4---|--4----|
|-----------------|----------------|-------------------5-|--2----|
|
|  ~~~              ~~                ~~~                   ~~
|  Q.    Q.    Q    Q.    Q.    Q     Q.   Q.    Q          W
|-------12----10--|-7-----9----10--|-12----7-----9-------|-------|
|-10----14----12--|-9----10----12--|-14----9----10-------|-10----|
|-11--------------|----------------|---------------------|-11----|
|-----------------|----------------|---------------------|-------|
|-----------------|----------------|---------------------|-------|
|-----------------|----------------|---------------------|-------|


  D5                A5                C#5
   W                 W                 W           +W
|-----------------|-----------------|-----------|---------|
|-----------------|-----------------|-----------|---------|
|-----------------|-----------------|-----------|---------|
|--7--------------|-----------------|--6--------|--(6)----|
|--5--------------|--7--------------|--4--------|--(4)----|
|-----------------|--5--------------|-----------|---------|
|
|  Q.    Q.    Q     Q.    Q.    Q     W           +W
|--------9----10--|-12----10-----9--|-13--------|-(13)----|
|-10----10----12--|-14----12----10--|-14--------|-(14)----|
|-11--------------|-----------------|-----------|---------|
|-----------------|-----------------|-----------|---------|
|-----------------|-----------------|-----------|---------|
|-----------------|-----------------|-----------|---------|


   Guitar Break
    F#5                           F#5   G#5   A5    B5C#5
    Gtr I
        PM------|     PM------------|   PM|   PM|
    S S S E S S S S S S E S S S   S S E S S E S S E E E
||------------------------------|------------------------||
||o-----------------------------|-----------------------o||
||------------------------------|------------------------||
||------------------------------|-------------------4-6--||
||o-----------------------------|-----4-----6-----7-2-4-o||
||--0h2-2-2-2-2-2-5p2-2-2-2-2-2-|-2-2-2-4-4-4-5-5-5------||


    B5                                          A5 D5 E5
        PM------|     PM------|       PM------|
    S S S E S S S S S S E S S S   S S S E S S S E. E. E  3x
||------------------------------|------------------------||
||o-----------------------------|-----------------------o||
||------------------------------|------------------------||
||------------------------------|------------------7--9--||
||o-0h2-2-2-2-2-2-5p2-2-2-2-2-2-|-7p2-2-2-2-2-2-7--5--7-o||
||------------------------------|---------------5--------||


  B5                                          D5 A5
      PM------|     PM------|       PM------|
  S S S E S S S S S S E S S S   S S S E S S S Q  E E
|-----------------------------|----------------------|
|-----------------------------|----------------------|
|-----------------------------|----------------------|
|-----------------------------|---------------7------|
|-0h2-2-2-2-2-2-5p2-2-2-2-2-2-|-7p2-2-2-2-2-2-5--7---|
|-----------------------------|------------------5---|


 Keyboard Solo
  N.C.
  Wx2
|--------|
|--------|
|--------|
|--------|
|--------|
|--------|


    F#5                                               A5    B5
      PM------------------------------------------------|   PM|
    S S S S S S S S S S S S S S S S   S S S S S S S S S S E S S E
||----------------------------------|-----------------------------|
||o---------------------------------|-----------------------------|
||----------------------------------|-----------------------------|
||----------------------------------|---------------------2-----4-|
||o-4-------------------------------|-----------------0-0-0-2-2-2-|
||--2-2-2-2-2-2-2-2-2-2-2-2-2-2-2-2-|-2-2-2-2-2-2-2-2-------------|


  F#5                                               E5
    PM--------------------------------------------|
  S S S S S S S S S S S S S S S S   S S S S S S S S H
|---------------------------------|-----------------------||
|---------------------------------|----------------------o||
|---------------------------------|-----------------------||
|---------------------------------|-----------------------||
|-4-------------------------------|-----------------2----o||
|-2-2-2-2-2-2-2-2-2-2-2-2-2-2-2-2-|-2-2-2-2-2-2-2-2-0-----||


 Guitar Solo
  F#5
  Gtr I
   S S S  S S S  S S  S S S  S S S  S S
|---------------------------------------|
|-15p0-0-14p0-0-12p0-12p0-0-14p0-0-15p0-|
|---------------------------------------|
|---------------------------------------|
|---------------------------------------|
|---------------------------------------|
|
| Gtr II
|    PM----------------------------------
|  S S S  S S S  S S  S S S  S S S  S S
|---------------------------------------|
|---------------------------------------|
|---------------------------------------|
|--4------------------------------------|
|--2-2-2--2-2-2--2-2--2-2-2--2-2-2--2-2-|
|---------------------------------------|


                        D5      E5
   S S S   E.       E     Q        E     E
|--------/17------\12---/14-----/(19)\-----|
|-17p0-0-----------------------------------|
|------------------------------------------|
|------------------------------------------|
|------------------------------------------|
|------------------------------------------|
|
|---------------------------|      PM--|
|  S S S   S  S S   S S   S S E    S   S E
|------------------------------------------|
|------------------------------------------|
|------------------------------------------|
|-----------------------------7----------9-|
|--2-2-2---2--2-2---2-2---5-5-5----7---7-7-|
|------------------------------------------|


  F#5                                                         A5
                                                                   ~~~~
   S S S  S S S  S S  S S S  S S S  S S    S S S  S S S  E     E   Q   E
|---------------------------------------|---------------------19-(24)-----|
|-17p0-0-14p0-0-15p0-17p0-0-19p0-0-20p0-|-22p0-0-17p0-0-22\---------------|
|---------------------------------------|---------------------------------|
|---------------------------------------|---------------------------------|
|---------------------------------------|---------------------------------|
|---------------------------------------|---------------------------------|
|
|    PM-----------------------------------------------------|
|  S S S  S S S  S S  S S S  S S S  S S    S S S  S S S  S  S  H
|---------------------------------------|---------------------------------|
|---------------------------------------|---------------------------------|
|---------------------------------------|---------------------------------|
|--4------------------------------------|----------------------2----------|
|--2-2-2--2-2-2--2-2--2-2-2--2-2-2--2-2-|--2-2-2--2-2-2--2--2--0----------|
|---------------------------------------|---------------------------------|


  F#5                                                       D5      E5
                                                             ~~~
   S S S  S S S  S S  S S S  S S S  S S    S S S  S S S S S  Q       +Q
|---------------------------------------|--------------------------------------|
|-15p0-0-14p0-0-12p0-12p0-0-14p0-0-15p0-|-12p0-0-10p0-0-8p0-[7]-----([7])\-----|
|---------------------------------------|--------------------------------------|
|---------------------------------------|--------------------------------------|
|---------------------------------------|--------------------------------------|
|---------------------------------------|--------------------------------------|
|
|    PM---------------------------------------------------------|     PM---|
|  S S S  S S S  S S  S S S  S S S  S S    S S S  S S S S S  S  S E   S    S E
|---------------------------------------|--------------------------------------|
|---------------------------------------|--------------------------------------|
|---------------------------------------|--------------------------------------|
|--4------------------------------------|-------------------------7----------9-|
|--2-2-2--2-2-2--2-2--2-2-2--2-2-2--2-2-|--2-2-2--2-2-2-2-2--5--5-5---7----7-7-|
|---------------------------------------|--------------------------------------|


  F#5
   S S S  S S S  S S  S S S  S S S  S S
|---------------------------------------|
|-12p0-0-14p0-0-15p0-15p0-0-14p0-0-12p0-|
|---------------------------------------|
|---------------------------------------|
|---------------------------------------|
|---------------------------------------|
|
|    PM----------------------------------
|  S S S  S S S  S S  S S S  S S S  S S
|---------------------------------------|
|---------------------------------------|
|---------------------------------------|
|--4------------------------------------|
|--2-2-2--2-2-2--2-2--2-2-2--2-2-2--2-2-|
|---------------------------------------|


                                              A5
                                                ~~~
   |--------6---------|  |--------6---------|
   S  S    S  S  S    S  S  S    S  S  S    S   H
|-15p14p==12------------17p15p==14------------/19----|
|------------15p14p==12------------17p15p==14--------|
|----------------------------------------------------|
|----------------------------------------------------|
|----------------------------------------------------|
|----------------------------------------------------|
|
|----------------------------------------|
|  S    S     S    S     S    S     S    S      H
|----------------------------------------------------|
|----------------------------------------------------|
|----------------------------------------------------|
|-----------------------------------------------2----|
|--2----2-----2----2-----2----2-----2----2------0----|
|----------------------------------------------------|


 Guitar & Keyboard Solo
  F#5                           F#5     G#5     A5      B5  C#5
      PM------|     PM------|
  S S S E S S S S S S E S S S   S S S S S S S S S S S S S S S S
|-----------------------------|---------------------------------|
|-----------------------------|---------------------------------|
|-----------------------------|-6h7p6p4---------------4-6h7p6p4-|
|-----------------------------|---------7-6-4S3S4-6-7-----------|
|-----------------------------|---------------------------------|
|-0h2-2-2-2-2-2-5p2-2-2-2-2-2-|---------------------------------|
|
|     PM------|     PM------------|     PM|     PM|
| S S S E S S S S S S E S S S   S S E   S S E   S S E   E   E
|-----------------------------|---------------------------------|
|-----------------------------|---------------------------------|
|-----------------------------|---------------------------------|
|-----------------------------|-------------------------4---6---|
|-----------------------------|-----4-------6-------7---2---4---|
|-0h2-2-2-2-2-2-5p2-2-2-2-2-2-|-2-2-2---4-4-4---5-5-5-----------|


  F#5                           F#5     G#5     A5      B5  C#5
      PM------|     PM------|
  S S S E S S S S S S E S S S   S S S S S S S S S S S S S S S S
|-----------------------------|---------------------------------|
|-----------------------------|---------------------------------|
|-----------------------------|-6-------4-------2-------1-------|
|-----------------------------|---7-------6-------4-------3-----|
|-----------------------------|-----9-------7-------5-------4---|
|-0h2-2-2-2-2-2-5p2-2-2-2-2-2-|---------------------------------|
|
|     PM------|     PM------------|     PM|     PM|
| S S S E S S S S S S E S S S   S S E   S S E   S S E   E   E
|-----------------------------|---------------------------------|
|-----------------------------|---------------------------------|
|-----------------------------|---------------------------------|
|-----------------------------|-------------------------4---6---|
|-----------------------------|-----4-------6-------7---2---4---|
|-0h2-2-2-2-2-2-5p2-2-2-2-2-2-|-2-2-2---4-4-4---5-5-5-----------|


  F#5                           F#5     G#5     A5      B5  C#5
      PM------|     PM------|
  S S S E S S S S S S E S S S   S S S S S S S S S S S S S S S S
|-----------------------------|---------------------------------|
|-----------------------------|---------------------------------|
|-----------------------------|-6h7p6p4---------------4-6h7p6p4-|
|-----------------------------|---------7-6-4S3S4-6-7-----------|
|-----------------------------|---------------------------------|
|-0h2-2-2-2-2-2-5p2-2-2-2-2-2-|---------------------------------|
|
|     PM------|     PM------------|     PM|     PM|
| S S S E S S S S S S E S S S   S S E   S S E   S S E   E   E
|-----------------------------|---------------------------------|
|-----------------------------|---------------------------------|
|-----------------------------|---------------------------------|
|-----------------------------|-------------------------4---6---|
|-----------------------------|-----4-------6-------7---2---4---|
|-0h2-2-2-2-2-2-5p2-2-2-2-2-2-|-2-2-2---4-4-4---5-5-5-----------|


  F#5                                 F#5     G#5     A5
                                     11/16
  S  S  S S S S S S S S S S S S S S   S S S S S S S S S S S
|-9---------7-------5-------4-------|-----------------------|
|---10--------9-------7-------6-----|-----------------------|
|------11-------9-------7-------6---|-6-------4-------2-----|
|-----------------------------------|---7-------6-------4---|
|-----------------------------------|-----9-------7-------5-|
|-----------------------------------|-----------------------|
|
|       PM--------|     PM--------------|     PM|
| S  S  S E   S S S S S S E   S S S   S S E   S S E   S S S
|-----------------------------------|-----------------------|
|-----------------------------------|-----------------------|
|-----------------------------------|-----------------------|
|-----------------------------------|-----------------------|
|-----------------------------------|-----4-------6-------7-|
|-0h=2--2-2---2-2-2-5p2-2-2---2-2-2-|-2-2-2---4-4-4---5-5-5-|


 Bridge
  D5         C#5        F#5
 4/4
  Gtr II
  W          W          W          +W
|----------|----------|----------|--------|
|----------|----------|----------|--------|
|----------|----------|----------|--------|
|-7--------|-6--------|----------|--------|
|-5--------|-4--------|-4--------|-(4)----|
|----------|----------|-2--------|-(2)----|


  A5         E5         D5   E5
  W          W          H    H
|----------|----------|-----------|
|----------|----------|-----------|
|----------|----------|-----------|
|-2--------|----------|-7---------|
|-0--------|-2--------|-5----2----|
|----------|-0--------|------0----|


 Riff 2 (Repeat)
  F#5
  Gtr I
  S S S  E S S S S S S E S S S    S S S S  S S S S S S S E S S S
|------------------------------|----------------------------------|
|------------------------------|----------------------------------|
|------------------------------|----------------------------------|
|----------------7-------------|-12p7---7-11p7---7-9-7---7-9-7-6--|
|-7h9-9--9-9-9-9---9-9-9-9-9-9-|------9--------9-------9----------|
|------------------------------|----------------------------------|
|
| Gtr II
| e   Q.         H                W
|------------------------------|----------------------------------|
|------------------------------|----------------------------------|
|------------------------------|----------------------------------|
|------------------------------|----------------------------------|
|-4----------------------------|----------------------------------|
|-2----------------------------|----------------------------------|


  D5
  S S S E S S S E S S E S S   S S S E S S S E S S E S S
|---------------------------|---------------------------|
|---------------------------|---------------------------|
|---------------------------|---------------------------|
|---------------7-----6-----|---------------7-----6-----|
|-4h5-5-5-5-5-5---5-----5---|-4h5-5-5-5-5-5---5-----5---|
|---------------------------|---------------------------|


  F#5
  S S S E S S S S S S E S S S    S S S S  S S S S S S S E S S S
|-----------------------------|----------------------------------|
|-----------------------------|----------------------------------|
|-----------------------------|----------------------------------|
|---------------7-------------|-12p7---7-11p7---7-9-7---7-9-7-6--|
|-7h9-9-9-9-9-9---9-9-9-9-9-9-|------9--------9-------9----------|
|-----------------------------|----------------------------------|


  D5
  S S S E S S S E S S E S S   S S S E S S S E S S E S S
|---------------------------|---------------------------|
|---------------------------|---------------------------|
|---------------------------|---------------------------|
|---------------7-----6-----|---------------7-----6-----|
|-4h5-5-5-5-5-5---5-----5---|-4h5-5-5-5-5-5---5-----5---|
|---------------------------|---------------------------|


  C#5
        T   T    T
  E S S S S S S  S S S S S S S S   S S S S S S S S S S S S S S S S
|--------------------------------|---------------------------------|
|--------------------------------|---------------------------------|
|--------------------------------|---------------------------------|
|--------------------7p4-6p4-----|-6-7-6-4---7-6-4-3h4p3-----------|
|-4-5p4-8p4-9p4-11p4---------8p5-|---------5-------------5-4-2-----|
|--------------------------------|-----------------------------5-4-|


   Verse 3
    F#5        E5   F#5    A5   C#/F   D5   A5 E/Ab
    W          H    H      H    H      H    Q  Q
||-----------|-----------|-----------|-------------||
||o----------|-----------|-----------|------------o||
||-----------|-----------|-----------|-------------||
||-----------|-----------|-----------|-7-----------||
||o-4--------|-2----4----|-7----4----|-5----7--7--o||
||--2--------|-0----2----|-5----1----|------5--4---||


   Chorus
    D5                                     E5
    Gtr I
        PM------------------------------------------------------------------|
     S  S S S S S  S  S S S S S  S S S S   S S S S S S  S  S S S S S  S S S S
||---------------------------------------|------------------------------------|
||o--------------------------------------|------------------------------------|
||---------------------------------------|------------------------------------|
||---7-----------------------------------|------------------------------------|
||o--5--5-5-5-5-5--5--5-5-5-5-5--5-5-5-5-|-5h7-7-7-7-7--7--7-7-7-7-7--5-5-5-5-|
||---------------------------------------|------------------------------------|
|
|   Gtrs II, III
|    ~~~                                   ~~
|    Q.            Q.            Q         Q.           Q.            Q
||----------------12------------10-------|-7------------9------------10-------|
||o-10------------14------------12-------|-9-----------10------------12-------|
||--11-----------------------------------|------------------------------------|
||---------------------------------------|------------------------------------|
||o--------------------------------------|------------------------------------|
||---------------------------------------|------------------------------------|


  C#5                                   F#5
   PM------------------------------------------------------------------|
   S  S S S S S S  S S S S S  S S S S    S S S S S S S S S S S S S S S S
|-------------------------------------|-----------------------------------|
|-------------------------------------|-----------------------------------|
|-------------------------------------|-----------------------------------|
|-------------------------------------|-----------------------------------|
|--4--4-4-4-4-4-4--4-4-4-4-4--4-4-4-4-|-----------------------------------|
|-------------------------------------|--2-2-2-2-2-2-2-2-2-2-2-2-2-2-2-2--|
|
|  ~~~                                   ~~
|  Q.           Q.            Q          W
|-12------------7-------------9-------|-----------------------------------|
|-14------------9------------10-------|-10--------------------------------|
|-------------------------------------|-11--------------------------------|
|-------------------------------------|-----------------------------------|
|-------------------------------------|-----------------------------------|
|-------------------------------------|-----------------------------------|


  D5                                     A5
      PM-----------------------------|       PM-----------------------------|
   S  S S S S S  S  S S S S S  S S S S    S  S S S S S  S  S S S S S  S S S S
|--------------------------------------|---------------------------------------|
|--------------------------------------|---------------------------------------|
|--------------------------------------|---------------------------------------|
|--7-----------------------------------|---------------------------------------|
|--5--5-5-5-5-5--5--5-5-5-5-5--5-5-5-5-|--7------------------------------------|
|--------------------------------------|--5--5-5-5-5-5--5--5-5-5-5-5--5-5-5-5--|
|
|  Q.            Q.            Q          Q.            Q.            Q
|----------------9------------10-------|-12------------10-------------9--------|
|-10------------10------------12-------|-14------------12------------10--------|
|-11-----------------------------------|---------------------------------------|
|--------------------------------------|---------------------------------------|
|--------------------------------------|---------------------------------------|
|--------------------------------------|---------------------------------------|


  1.
  E5
   PM--------------------------------------------------------------|
   S S S S S S S S S S S S S S S S   S S S S S S S S S S S S S S S S
|----------------------------------|-----------------------------------||
|----------------------------------|----------------------------------o||
|----------------------------------|-----------------------------------||
|----------------------------------|-----------------------------------||
|----------------------------------|----------------------------------o||
|--0-0-0-0-0-0-0-0-0-0-0-0-0-0-0-0-|-0-0-0-0-0-0-0-0-0-0-0-0-0-0-0-0---||
|
|  ~~~~~~~~~~~~~~~~~~~~~~~~~~~~~~~~~~~~
|  W                                 W
|--9-------------------------------|-7---------------------------------||
|-10-------------------------------|-9--------------------------------o||
|----------------------------------|-----------------------------------||
|----------------------------------|-----------------------------------||
|----------------------------------|----------------------------------o||
|----------------------------------|-----------------------------------||


  2.
  C#5
   Q.   Q.   Q     +E  Q.   H
|---------------|----------------|
|---------------|----------------|
|---------------|----------------|
|--6----6----6--|--(6)-6----6----|
|--4----4----4--|--(4)-4----4----|
|---------------|----------------|
|
|  ~~~~~~~~~~~~~~~~~~~~
|  W               +W
|-13------------|-(13)-----------|
|-14------------|-(14)-----------|
|---------------|----------------|
|---------------|----------------|
|---------------|----------------|
|---------------|----------------|


 Out-Chorus
  D5                E5               C#5                   F#5
   W                W                 H.         S S S S    W
|-----------------|----------------|---------------------|-------|
|-----------------|----------------|---------------------|-------|
|-----------------|----------------|---------------------|-------|
|--7--------------|-9--------------|--6------------------|-------|
|--5--------------|-7--------------|--4----------4h5p4---|--4----|
|-----------------|----------------|-------------------5-|--2----|
|
|  ~~~              ~~                ~~~                   ~~
|  Q.    Q.    Q    Q.    Q.    Q     Q.   Q.    Q          W
|-------12----10--|-7-----9----10--|-12----7-----9-------|-------|
|-10----14----12--|-9----10----12--|-14----9----10-------|-10----|
|-11--------------|----------------|---------------------|-11----|
|-----------------|----------------|---------------------|-------|
|-----------------|----------------|---------------------|-------|
|-----------------|----------------|---------------------|-------|


  D5                A5                E5
   W                 W                 W          +W
|-----------------|-----------------|-----------|--------|
|-----------------|-----------------|-----------|--------|
|-----------------|-----------------|-----------|--------|
|--7--------------|-----------------|--9--------|-(9)----|
|--5--------------|--7--------------|--7--------|-(7)----|
|-----------------|--5--------------|-----------|--------|
|
|                                      ~~~~~~~~~~~~~~~
|  Q.    Q.    Q     Q.    Q.    Q     W           W
|--------9----10--|-12----10-----9--|--9--------|--7-----|
|-10----10----12--|-14----12----10--|-10--------|--9-----|
|-11--------------|-----------------|-----------|--------|
|-----------------|-----------------|-----------|--------|
|-----------------|-----------------|-----------|--------|
|-----------------|-----------------|-----------|--------|


  D5                                     E5
      PM------------------------------------------------------------------|
   S  S S S S S  S  S S S S S  S S S S   S S S S S S  S  S S S S S  S S S S
|--------------------------------------|-------------------------------------|
|--------------------------------------|-------------------------------------|
|--------------------------------------|-------------------------------------|
|--7-----------------------------------|-------------------------------------|
|--5--5-5-5-5-5--5--5-5-5-5-5--5-5-5-5-|-5h7-7-7-7-7--7--7-7-7-7-7--5-5-5-5--|
|--------------------------------------|-------------------------------------|
|
|  ~~~                                   ~~
|  Q.            Q.            Q         Q.           Q.            Q
|---------------12------------10-------|-7------------9------------10--------|
|-10------------14------------12-------|-9-----------10------------12--------|
|-11-----------------------------------|-------------------------------------|
|--------------------------------------|-------------------------------------|
|--------------------------------------|-------------------------------------|
|--------------------------------------|-------------------------------------|


  C#5                                   F#5
   PM-------------------------------|
   S  S S S S S S  S S S S S  S S S S    W
|-------------------------------------|-------|
|-------------------------------------|-------|
|-------------------------------------|-------|
|-------------------------------------|-------|
|--4--4-4-4-4-4-4--4-4-4-4-4--4-4-4-4-|--4----|
|-------------------------------------|--2----|
|
|  ~~~                                   ~~
|  Q.           Q.            Q          W
|-12------------7-------------9-------|-------|
|-14------------9------------10-------|-10----|
|-------------------------------------|-11----|
|-------------------------------------|-------|
|-------------------------------------|-------|
|-------------------------------------|-------|


  H.=H
  D5                A5                C#5         C#5
   W                 W                 W            W
|-----------------|-----------------|-----------|---------|
|-----------------|-----------------|-----------|---------|
|-----------------|-----------------|-----------|---------|
|--7--------------|-----------------|--6--------|---6-----|
|--5--------------|--7--------------|--4--------|---4-----|
|-----------------|--5--------------|-----------|---------|
|
|                                      ~~~~~~~~~~~~~~~~
|  Q.    Q.    Q     Q.    Q.    Q     W           +W
|--------9----10--|-12----10-----9--|-13--------|-(13)----|
|-10----10----12--|-14----12----10--|-14--------|-(14)----|
|-11--------------|-----------------|-----------|---------|
|-----------------|-----------------|-----------|---------|
|-----------------|-----------------|-----------|---------|
|-----------------|-----------------|-----------|---------|


  Slowly Q=70
  F#5
                       \1
  W          +H.      +Q
|----------|----------------*|
|----------|----------------*|
|----------|----------------*|
|----------|----------------*|
|-4--------|-(4)------(4)\--*|
|-2--------|-(2)------(2)\--*|



Duration Legend
---------------
W - whole; H - half; Q - quarter; E - 8th; S - 16th; T - 32nd; X - 64th; a - acciaccatura
+ - note tied to previous; . - note dotted; .. - note double dotted
Uncapitalized letters represent notes that are staccato (1/2 duration)
Irregular groupings are notated above the duration line
Duration letters will always appear directly above the note/fret number it represents the
duration for.  Duration letters with no fret number below them represent rests.  Multi-
bar rests are notated in the form Wxn, where n is the number of bars to rest for.  Low
melody durations appear below the staff

Tablature Legend
----------------
 h   - hammer-on
 p   - pull-off
 b   - bend
 pb  - pre-bend
 r   - bend release (if no number after the r, then release immediately)
 /\  - slide into or out of (from/to "nowhere")
 s   - legato slide
 S   - shift slide
<n> - natural harmonic
[n]  - artificial harmonic
n(n) - tapped harmonic
 ~   - vibrato
 tr  - trill
 T   - tap
 TP  - trem. picking
 PM  - palm muting
\n/  - tremolo bar dip; n = amount to dip
 \n  - tremolo bar down
 n/  - tremolo bar up
/n\  - tremolo bar inverted dip
 =   - hold bend; also acts as connecting device for hammers/pulls
 <> - volume swell (louder/softer)
 x   - on rhythm slash represents muted slash
 o   - on rhythm slash represents single note slash

Misc Legend
-----------
 |  - bar
||  - double bar
||o - repeat start
o|| - repeat end
*|  - double bar (ending)
 :  - bar (freetime)
 $  - Segno
 &  - Coda
Tempo markers - <E/E./Q/Q./H/H.> = BPM(8/16=s8/s16), where s8 = swing 8ths, s16 = swing 16ths

comments
We did not receive enough feedback on this tab! Please rate:
print report bad tab
1 2 3 4 5
I want to post or [tab]
guest
You may want to rate the tab now too:
select rating
Please do not post tabs as comments. Select "correction" instead!